  0
SECTION
  2
HEADER
  9
$ACADVER
  1
AC1032
  9
$ACADMAINTVER
 90
        4
  9
$DWGCODEPAGE
  3
ANSI_1252
  9
$LASTSAVEDBY
  1
esa
  9
$REQUIREDVERSIONS
160
                 0
  9
$INSBASE
 10
0.0
 20
0.0
 30
0.0
  9
$EXTMIN
 10
-59.40001100000001
 20
-48.882031077
 30
0.0
  9
$EXTMAX
 10
96.79766479900002
 20
70.95001100000002
 30
0.0
  9
$LIMMIN
 10
0.0
 20
0.0
  9
$LIMMAX
 10
420.0
 20
297.0
  9
$ORTHOMODE
 70
     0
  9
$REGENMODE
 70
     1
  9
$FILLMODE
 70
     1
  9
$QTEXTMODE
 70
     0
  9
$MIRRTEXT
 70
     1
  9
$LTSCALE
 40
7.05
  9
$ATTMODE
 70
     1
  9
$TEXTSIZE
 40
2.5
  9
$TRACEWID
 40
1.0
  9
$TEXTSTYLE
  7
STANDARD
  9
$CLAYER
  8
0
  9
$CELTYPE
  6
BYLAYER
  9
$CECOLOR
 62
   256
  9
$CELTSCALE
 40
1.0
  9
$DISPSILH
 70
     0
  9
$DIMSCALE
 40
1.0
  9
$DIMASZ
 40
2.5
  9
$DIMEXO
 40
0.625
  9
$DIMDLI
 40
3.75
  9
$DIMRND
 40
0.0
  9
$DIMDLE
 40
0.0
  9
$DIMEXE
 40
1.25
  9
$DIMTP
 40
0.0
  9
$DIMTM
 40
0.0
  9
$DIMTXT
 40
2.5
  9
$DIMCEN
 40
2.5
  9
$DIMTSZ
 40
0.0
  9
$DIMTOL
 70
     0
  9
$DIMLIM
 70
     0
  9
$DIMTIH
 70
     0
  9
$DIMTOH
 70
     0
  9
$DIMSE1
 70
     0
  9
$DIMSE2
 70
     0
  9
$DIMTAD
 70
     1
  9
$DIMZIN
 70
     8
  9
$DIMBLK
  1

  9
$DIMASO
 70
     1
  9
$DIMSHO
 70
     1
  9
$DIMPOST
  1

  9
$DIMAPOST
  1

  9
$DIMALT
 70
     0
  9
$DIMALTD
 70
     3
  9
$DIMALTF
 40
0.03937007874016
  9
$DIMLFAC
 40
1.0
  9
$DIMTOFL
 70
     1
  9
$DIMTVP
 40
0.0
  9
$DIMTIX
 70
     0
  9
$DIMSOXD
 70
     0
  9
$DIMSAH
 70
     0
  9
$DIMBLK1
  1

  9
$DIMBLK2
  1

  9
$DIMSTYLE
  2
ISO-25
  9
$DIMCLRD
 70
     0
  9
$DIMCLRE
 70
     0
  9
$DIMCLRT
 70
     0
  9
$DIMTFAC
 40
1.0
  9
$DIMGAP
 40
0.625
  9
$DIMJUST
 70
     0
  9
$DIMSD1
 70
     0
  9
$DIMSD2
 70
     0
  9
$DIMTOLJ
 70
     0
  9
$DIMTZIN
 70
     8
  9
$DIMALTZ
 70
     0
  9
$DIMALTTZ
 70
     0
  9
$DIMUPT
 70
     0
  9
$DIMDEC
 70
     2
  9
$DIMTDEC
 70
     2
  9
$DIMALTU
 70
     2
  9
$DIMALTTD
 70
     3
  9
$DIMTXSTY
  7
STANDARD
  9
$DIMAUNIT
 70
     0
  9
$DIMADEC
 70
     0
  9
$DIMALTRND
 40
0.0
  9
$DIMAZIN
 70
     0
  9
$DIMDSEP
 70
    46
  9
$DIMATFIT
 70
     3
  9
$DIMFRAC
 70
     0
  9
$DIMLDRBLK
  1

  9
$DIMLUNIT
 70
     2
  9
$DIMLWD
 70
    -2
  9
$DIMLWE
 70
    -2
  9
$DIMTMOVE
 70
     2
  9
$DIMFXL
 40
1.0
  9
$DIMFXLON
 70
     0
  9
$DIMJOGANG
 40
0.7853981633974483
  9
$DIMTFILL
 70
     0
  9
$DIMTFILLCLR
 70
     0
  9
$DIMARCSYM
 70
     0
  9
$DIMLTYPE
  6

  9
$DIMLTEX1
  6

  9
$DIMLTEX2
  6

  9
$DIMTXTDIRECTION
 70
     0
  9
$LUNITS
 70
     2
  9
$LUPREC
 70
     4
  9
$SKETCHINC
 40
1.0
  9
$FILLETRAD
 40
10.0
  9
$AUNITS
 70
     0
  9
$AUPREC
 70
     0
  9
$MENU
  1
.
  9
$ELEVATION
 40
0.0
  9
$PELEVATION
 40
0.0
  9
$THICKNESS
 40
0.0
  9
$LIMCHECK
 70
     0
  9
$CHAMFERA
 40
10.0
  9
$CHAMFERB
 40
10.0
  9
$CHAMFERC
 40
20.0
  9
$CHAMFERD
 40
0.0
  9
$SKPOLY
 70
     0
  9
$TDCREATE
 40
2459283.583333322
  9
$TDUCREATE
 40
2459283.499999988
  9
$TDUPDATE
 40
2459376.612986748
  9
$TDUUPDATE
 40
2459376.529653414
  9
$TDINDWG
 40
0.0005679398
  9
$TDUSRTIMER
 40
0.0005679282
  9
$USRTIMER
 70
     1
  9
$ANGBASE
 50
0.0
  9
$ANGDIR
 70
     0
  9
$PDMODE
 70
     0
  9
$PDSIZE
 40
0.0
  9
$PLINEWID
 40
0.0
  9
$SPLFRAME
 70
     0
  9
$SPLINETYPE
 70
     6
  9
$SPLINESEGS
 70
     8
  9
$HANDSEED
  5
560
  9
$SURFTAB1
 70
     6
  9
$SURFTAB2
 70
     6
  9
$SURFTYPE
 70
     6
  9
$SURFU
 70
     6
  9
$SURFV
 70
     6
  9
$UCSBASE
  2

  9
$UCSNAME
  2

  9
$UCSORG
 10
0.0
 20
0.0
 30
0.0
  9
$UCSXDIR
 10
1.0
 20
0.0
 30
0.0
  9
$UCSYDIR
 10
0.0
 20
1.0
 30
0.0
  9
$UCSORTHOREF
  2

  9
$UCSORTHOVIEW
 70
     0
  9
$UCSORGTOP
 10
0.0
 20
0.0
 30
0.0
  9
$UCSORGBOTTOM
 10
0.0
 20
0.0
 30
0.0
  9
$UCSORGLEFT
 10
0.0
 20
0.0
 30
0.0
  9
$UCSORGRIGHT
 10
0.0
 20
0.0
 30
0.0
  9
$UCSORGFRONT
 10
0.0
 20
0.0
 30
0.0
  9
$UCSORGBACK
 10
0.0
 20
0.0
 30
0.0
  9
$PUCSBASE
  2

  9
$PUCSNAME
  2

  9
$PUCSORG
 10
0.0
 20
0.0
 30
0.0
  9
$PUCSXDIR
 10
1.0
 20
0.0
 30
0.0
  9
$PUCSYDIR
 10
0.0
 20
1.0
 30
0.0
  9
$PUCSORTHOREF
  2

  9
$PUCSORTHOVIEW
 70
     0
  9
$PUCSORGTOP
 10
0.0
 20
0.0
 30
0.0
  9
$PUCSORGBOTTOM
 10
0.0
 20
0.0
 30
0.0
  9
$PUCSORGLEFT
 10
0.0
 20
0.0
 30
0.0
  9
$PUCSORGRIGHT
 10
0.0
 20
0.0
 30
0.0
  9
$PUCSORGFRONT
 10
0.0
 20
0.0
 30
0.0
  9
$PUCSORGBACK
 10
0.0
 20
0.0
 30
0.0
  9
$USERI1
 70
     0
  9
$USERI2
 70
     0
  9
$USERI3
 70
     0
  9
$USERI4
 70
     0
  9
$USERI5
 70
     0
  9
$USERR1
 40
0.0
  9
$USERR2
 40
0.0
  9
$USERR3
 40
0.0
  9
$USERR4
 40
0.0
  9
$USERR5
 40
0.0
  9
$WORLDVIEW
 70
     1
  9
$SHADEDGE
 70
     3
  9
$SHADEDIF
 70
    70
  9
$TILEMODE
 70
     1
  9
$MAXACTVP
 70
    64
  9
$PINSBASE
 10
0.0
 20
0.0
 30
0.0
  9
$PLIMCHECK
 70
     0
  9
$PEXTMIN
 10
1.000000000000000E+20
 20
1.000000000000000E+20
 30
1.000000000000000E+20
  9
$PEXTMAX
 10
-1.000000000000000E+20
 20
-1.000000000000000E+20
 30
-1.000000000000000E+20
  9
$PLIMMIN
 10
0.0
 20
0.0
  9
$PLIMMAX
 10
0.0
 20
0.0
  9
$UNITMODE
 70
     0
  9
$VISRETAIN
 70
     1
  9
$PLINEGEN
 70
     0
  9
$PSLTSCALE
 70
     1
  9
$TREEDEPTH
 70
  3020
  9
$CMLSTYLE
  2
STANDARD
  9
$CMLJUST
 70
     0
  9
$CMLSCALE
 40
20.0
  9
$PROXYGRAPHICS
 70
     1
  9
$MEASUREMENT
 70
     1
  9
$CELWEIGHT
370
    -1
  9
$ENDCAPS
280
     0
  9
$JOINSTYLE
280
     0
  9
$LWDISPLAY
290
     0
  9
$INSUNITS
 70
     4
  9
$HYPERLINKBASE
  1

  9
$STYLESHEET
  1

  9
$XEDIT
290
     1
  9
$CEPSNTYPE
380
     0
  9
$PSTYLEMODE
290
     1
  9
$FINGERPRINTGUID
  2
{E302B882-4A85-499A-ABAD-3C4F2967E0D0}
  9
$VERSIONGUID
  2
{FAEB1C32-E019-11D5-929B-00C0DF256EC4}
  9
$EXTNAMES
290
     1
  9
$PSVPSCALE
 40
0.0
  9
$OLESTARTUP
290
     0
  9
$SORTENTS
280
   127
  9
$INDEXCTL
280
     0
  9
$HIDETEXT
280
     1
  9
$XCLIPFRAME
280
     2
  9
$HALOGAP
280
     0
  9
$OBSCOLOR
 70
   257
  9
$OBSLTYPE
280
     0
  9
$INTERSECTIONDISPLAY
280
     0
  9
$INTERSECTIONCOLOR
 70
   257
  9
$DIMASSOC
280
     2
  9
$PROJECTNAME
  1

  9
$CAMERADISPLAY
290
     0
  9
$LENSLENGTH
 40
50.0
  9
$CAMERAHEIGHT
 40
0.0
  9
$STEPSPERSEC
 40
2.0
  9
$STEPSIZE
 40
6.0
  9
$3DDWFPREC
 40
2.0
  9
$PSOLWIDTH
 40
5.0
  9
$PSOLHEIGHT
 40
80.0
  9
$LOFTANG1
 40
1.570796326794897
  9
$LOFTANG2
 40
1.570796326794897
  9
$LOFTMAG1
 40
0.0
  9
$LOFTMAG2
 40
0.0
  9
$LOFTPARAM
 70
     7
  9
$LOFTNORMALS
280
     1
  9
$LATITUDE
 40
37.795
  9
$LONGITUDE
 40
-122.394
  9
$NORTHDIRECTION
 40
0.0
  9
$TIMEZONE
 70
 -8000
  9
$LIGHTGLYPHDISPLAY
280
     1
  9
$TILEMODELIGHTSYNCH
280
     1
  9
$SOLIDHIST
280
     0
  9
$SHOWHIST
280
     1
  9
$DWFFRAME
280
     2
  9
$DGNFRAME
280
     2
  9
$REALWORLDSCALE
290
     1
  9
$INTERFERECOLOR
 62
   256
  9
$CSHADOW
280
     0
  9
$SHADOWPLANELOCATION
 40
0.0
  0
ENDSEC
  0
SECTION
  2
CLASSES
  0
CLASS
  1
ACDBDICTIONARYWDFLT
  2
AcDbDictionaryWithDefault
  3
ObjectDBX Classes
 90
        0
 91
        3
280
     0
281
     0
  0
CLASS
  1
VISUALSTYLE
  2
AcDbVisualStyle
  3
ObjectDBX Classes
 90
     4095
 91
        3
280
     0
281
     0
  0
CLASS
  1
MATERIAL
  2
AcDbMaterial
  3
ObjectDBX Classes
 90
     1153
 91
        3
280
     0
281
     0
  0
CLASS
  1
SCALE
  2
AcDbScale
  3
ObjectDBX Classes
 90
     1153
 91
        3
280
     0
281
     0
  0
CLASS
  1
DICTIONARYVAR
  2
AcDbDictionaryVar
  3
ObjectDBX Classes
 90
        0
 91
        3
280
     0
281
     0
  0
CLASS
  1
XRECORD
  2
AcDbXrecord
  3
ObjectDBX Classes
 90
        0
 91
        1
280
     0
281
     0
  0
CLASS
  1
LWPOLYLINE
  2
AcDbPolyline
  3
ObjectDBX Classes
 90
        0
 91
        1
280
     0
281
     1
  0
CLASS
  1
HATCH
  2
AcDbHatch
  3
ObjectDBX Classes
 90
        0
 91
        1
280
     0
281
     1
  0
CLASS
  1
ACDBPLACEHOLDER
  2
AcDbPlaceHolder
  3
ObjectDBX Classes
 90
        0
 91
        1
280
     0
281
     0
  0
CLASS
  1
LAYOUT
  2
AcDbLayout
  3
ObjectDBX Classes
 90
        0
 91
        1
280
     0
281
     0
  0
CLASS
  1
TABLESTYLE
  2
AcDbTableStyle
  3
ObjectDBX Classes
 90
     4095
 91
        3
280
     0
281
     0
  0
CLASS
  1
MLEADERSTYLE
  2
AcDbMLeaderStyle
  3
ACDB_MLEADERSTYLE_CLASS
 90
     4095
 91
        3
280
     0
281
     0
  0
CLASS
  1
CELLSTYLEMAP
  2
AcDbCellStyleMap
  3
ObjectDBX Classes
 90
     1152
 91
        3
280
     0
281
     0
  0
ENDSEC
  0
SECTION
  2
TABLES
  0
TABLE
  2
VPORT
  5
8
330
0
100
AcDbSymbolTable
 70
     1
  0
VPORT
  5
29
330
8
100
AcDbSymbolTableRecord
100
AcDbViewportTableRecord
  2
*ACTIVE
 70
     0
 10
0.0
 20
0.0
 11
1.0
 21
1.0
 12
48.40514638988684
 22
12.59702409528068
 13
0.0
 23
0.0
 14
10.0
 24
10.0
 15
10.0
 25
10.0
 16
0.0
 26
0.0
 36
1.0
 17
0.0
 27
0.0
 37
0.0
 40
136.2125460592248
 41
1.925547445255474
 42
50.0
 43
0.0
 44
0.0
 50
0.0
 51
0.0
 71
    16
 72
   100
 73
     1
 74
     3
 75
     0
 76
     0
 77
     0
 78
     0
281
     0
 65
     1
110
0.0
120
0.0
130
0.0
111
1.0
121
0.0
131
0.0
112
0.0
122
1.0
132
0.0
 79
     0
146
0.0
348
2F
 60
     3
 61
     5
292
     1
282
     1
141
0.0
142
0.0
 63
   256
  0
ENDTAB
  0
TABLE
  2
LTYPE
  5
5
330
0
100
AcDbSymbolTable
 70
    11
  0
LTYPE
  5
14
330
5
100
AcDbSymbolTableRecord
100
AcDbLinetypeTableRecord
  2
BYBLOCK
 70
     0
  3

 72
    65
 73
     0
 40
0.0
  0
LTYPE
  5
15
330
5
100
AcDbSymbolTableRecord
100
AcDbLinetypeTableRecord
  2
BYLAYER
 70
     0
  3

 72
    65
 73
     0
 40
0.0
  0
LTYPE
  5
16
330
5
100
AcDbSymbolTableRecord
100
AcDbLinetypeTableRecord
  2
CONTINUOUS
 70
     0
  3
Solid line
 72
    65
 73
     0
 40
0.0
  0
LTYPE
  5
45
330
5
100
AcDbSymbolTableRecord
100
AcDbLinetypeTableRecord
  2
PHL_THICK
 70
     0
  3
THICK
 72
    65
 73
     0
 40
0.0
  0
LTYPE
  5
59
330
5
100
AcDbSymbolTableRecord
100
AcDbLinetypeTableRecord
  2
SK1
 70
     0
  3
THICK
 72
    65
 73
     0
 40
0.0
  0
LTYPE
  5
6C
330
5
100
AcDbSymbolTableRecord
100
AcDbLinetypeTableRecord
  2
NOCUT
 70
     0
  3
THICK
 72
    65
 73
     0
 40
0.0
  0
LTYPE
  5
71
330
5
100
AcDbSymbolTableRecord
100
AcDbLinetypeTableRecord
  2
LS_SK2
 70
     0
  3
THIN
 72
    65
 73
     0
 40
0.0
  0
LTYPE
  5
D8
330
5
100
AcDbSymbolTableRecord
100
AcDbLinetypeTableRecord
  2
LS_2
 70
     0
  3
THIN
 72
    65
 73
     0
 40
0.0
  0
LTYPE
  5
161
330
5
100
AcDbSymbolTableRecord
100
AcDbLinetypeTableRecord
  2
CUT
 70
     0
  3
THICK
 72
    65
 73
     0
 40
0.0
  0
LTYPE
  5
16E
330
5
100
AcDbSymbolTableRecord
100
AcDbLinetypeTableRecord
  2
LS_SK1
 70
     0
  3
THICK
 72
    65
 73
     0
 40
0.0
  0
LTYPE
  5
2B3
330
5
100
AcDbSymbolTableRecord
100
AcDbLinetypeTableRecord
  2
LONGDASH_DASH
 70
     0
  3
THIN_DASHDOT
 72
    65
 73
     4
 40
0.85
 49
0.4
 74
     0
 49
-0.2
 74
     0
 49
0.05
 74
     0
 49
-0.2
 74
     0
  0
LTYPE
  5
2B8
330
5
100
AcDbSymbolTableRecord
100
AcDbLinetypeTableRecord
  2
INFTOTAL
 70
     0
  3
THIN
 72
    65
 73
     0
 40
0.0
  0
LTYPE
  5
2BE
330
5
100
AcDbSymbolTableRecord
100
AcDbLinetypeTableRecord
  2
LS1
 70
     0
  3
THICK
 72
    65
 73
     0
 40
0.0
  0
ENDTAB
  0
TABLE
  2
LAYER
  5
2
330
0
100
AcDbSymbolTable
 70
    11
  0
LAYER
  5
10
330
2
100
AcDbSymbolTableRecord
100
AcDbLayerTableRecord
  2
0
 70
     0
 62
     7
  6
CONTINUOUS
370
    -3
390
546
347
3E
348
0
  0
LAYER
  5
44
330
2
100
AcDbSymbolTableRecord
100
AcDbLayerTableRecord
  2
1
 70
     0
 62
     4
  6
CONTINUOUS
370
    50
390
546
347
3E
348
0
  0
LAYER
  5
58
330
2
100
AcDbSymbolTableRecord
100
AcDbLayerTableRecord
  2
SK1
 70
     0
 62
     4
  6
CONTINUOUS
370
    50
390
546
347
3E
348
0
  0
LAYER
  5
6B
330
2
100
AcDbSymbolTableRecord
100
AcDbLayerTableRecord
  2
NOCUT
 70
     0
 62
     7
  6
CONTINUOUS
370
    25
390
546
347
3E
348
0
  0
LAYER
  5
70
330
2
100
AcDbSymbolTableRecord
100
AcDbLayerTableRecord
  2
SK2
 70
     0
 62
     7
  6
CONTINUOUS
370
    25
390
546
347
3E
348
0
  0
LAYER
  5
D7
330
2
100
AcDbSymbolTableRecord
100
AcDbLayerTableRecord
  2
2
 70
     0
 62
     7
  6
CONTINUOUS
370
    25
390
546
347
3E
348
0
  0
LAYER
  5
160
330
2
100
AcDbSymbolTableRecord
100
AcDbLayerTableRecord
  2
CUT
 70
     0
 62
     1
  6
CONTINUOUS
370
    25
390
546
347
3E
348
0
  0
LAYER
  5
2B2
330
2
100
AcDbSymbolTableRecord
100
AcDbLayerTableRecord
  2
4
 70
     0
 62
     2
  6
LONGDASH_DASH
370
    25
390
546
347
3E
348
0
  0
LAYER
  5
2B5
330
2
100
AcDbSymbolTableRecord
100
AcDbLayerTableRecord
  2
SK4
 70
     0
 62
     2
  6
LONGDASH_DASH
370
    25
390
546
347
3E
348
0
  0
LAYER
  5
2B7
330
2
100
AcDbSymbolTableRecord
100
AcDbLayerTableRecord
  2
INFTOTAL
 70
     0
 62
     9
  6
CONTINUOUS
370
    18
390
546
347
3E
348
0
  0
LAYER
  5
2BD
330
2
100
AcDbSymbolTableRecord
100
AcDbLayerTableRecord
  2
SK6
 70
     0
 62
     5
  6
CONTINUOUS
370
    25
390
546
347
3E
348
0
  0
ENDTAB
  0
TABLE
  2
STYLE
  5
3
330
0
100
AcDbSymbolTable
 70
     1
  0
STYLE
  5
11
330
3
100
AcDbSymbolTableRecord
100
AcDbTextStyleTableRecord
  2
STANDARD
 70
     0
 40
0.0
 41
1.0
 50
0.0
 71
     0
 42
2.5
  3
Monospac821 BT
  4

  0
ENDTAB
  0
TABLE
  2
VIEW
  5
6
330
0
100
AcDbSymbolTable
 70
     0
  0
ENDTAB
  0
TABLE
  2
UCS
  5
7
330
0
100
AcDbSymbolTable
 70
     0
  0
ENDTAB
  0
TABLE
  2
APPID
  5
9
330
0
100
AcDbSymbolTable
 70
     2
  0
APPID
  5
12
330
9
100
AcDbSymbolTableRecord
100
AcDbRegAppTableRecord
  2
ACAD
 70
     0
  0
APPID
  5
3F
330
9
100
AcDbSymbolTableRecord
100
AcDbRegAppTableRecord
  2
CCLAB
 70
     0
  0
ENDTAB
  0
TABLE
  2
DIMSTYLE
  5
A
330
0
100
AcDbSymbolTable
 70
     1
100
AcDbDimStyleTable
  0
DIMSTYLE
105
27
330
A
100
AcDbSymbolTableRecord
100
AcDbDimStyleTableRecord
  2
ISO-25
 70
     0
 41
2.5
 42
0.625
 43
3.75
 44
1.25
 73
     0
 74
     0
 77
     1
 78
     8
140
2.5
141
2.5
143
0.03937007874016
147
0.625
171
     3
172
     1
178
     0
271
     2
272
     2
274
     3
283
     0
284
     8
340
11
  0
ENDTAB
  0
TABLE
  2
BLOCK_RECORD
  5
1
330
0
100
AcDbSymbolTable
 70
     0
  0
BLOCK_RECORD
  5
1F
330
1
100
AcDbSymbolTableRecord
100
AcDbBlockTableRecord
  2
*MODEL_SPACE
340
547
 70
     0
280
     1
281
     0
  0
BLOCK_RECORD
  5
1B
330
1
100
AcDbSymbolTableRecord
100
AcDbBlockTableRecord
  2
*PAPER_SPACE
340
548
 70
     0
280
     1
281
     0
  0
ENDTAB
  0
ENDSEC
  0
SECTION
  2
BLOCKS
  0
BLOCK
  5
20
330
1F
100
AcDbEntity
  8
0
100
AcDbBlockBegin
  2
*MODEL_SPACE
 70
     0
 10
0.0
 20
0.0
 30
0.0
  3
*MODEL_SPACE
  1

  0
ENDBLK
  5
21
330
1F
100
AcDbEntity
  8
0
100
AcDbBlockEnd
  0
BLOCK
  5
1C
330
1B
100
AcDbEntity
 67
     1
  8
0
100
AcDbBlockBegin
  2
*PAPER_SPACE
 70
     0
 10
0.0
 20
0.0
 30
0.0
  3
*PAPER_SPACE
  1

  0
ENDBLK
  5
1D
330
1B
100
AcDbEntity
 67
     1
  8
0
100
AcDbBlockEnd
  0
ENDSEC
  0
SECTION
  2
ENTITIES
  0
LINE
  5
2C8
330
1F
100
AcDbEntity
  8
1
  6
Continuous
 62
     4
370
    50
100
AcDbLine
 10
19.0
 20
-10.5
 30
0.0
 11
16.0
 21
-10.4
 31
0.0
  0
LINE
  5
2C9
330
1F
100
AcDbEntity
  8
1
  6
Continuous
 62
     4
370
    50
100
AcDbLine
 10
24.310951
 20
-12.5
 30
0.0
 11
35.5
 21
-12.5
 31
0.0
  0
LINE
  5
2CA
330
1F
100
AcDbEntity
  8
1
  6
Continuous
 62
     4
370
    50
100
AcDbLine
 10
19.0
 20
-12.125
 30
0.0
 11
23.826828
 21
-12.125
 31
0.0
  0
LINE
  5
2CB
330
1F
100
AcDbEntity
  8
1
  6
Continuous
 62
     4
370
    50
100
AcDbLine
 10
0.0
 20
-10.4
 30
0.0
 11
16.0
 21
-10.4
 31
0.0
  0
LINE
  5
2CC
330
1F
100
AcDbEntity
  8
1
  6
Continuous
 62
     4
370
    50
100
AcDbLine
 10
0.0
 20
10.4
 30
0.0
 11
16.0
 21
10.4
 31
0.0
  0
LINE
  5
2CD
330
1F
100
AcDbEntity
  8
1
  6
Continuous
 62
     4
370
    50
100
AcDbLine
 10
19.0
 20
12.125
 30
0.0
 11
23.826828
 21
12.125
 31
0.0
  0
LINE
  5
2CE
330
1F
100
AcDbEntity
  8
1
  6
Continuous
 62
     4
370
    50
100
AcDbLine
 10
24.310951
 20
12.5
 30
0.0
 11
35.5
 21
12.5
 31
0.0
  0
LINE
  5
2CF
330
1F
100
AcDbEntity
  8
1
  6
Continuous
 62
     4
370
    50
100
AcDbLine
 10
16.0
 20
10.4
 30
0.0
 11
19.0
 21
10.5
 31
0.0
  0
LINE
  5
2D0
330
1F
100
AcDbEntity
  8
1
  6
Continuous
 62
     4
370
    50
100
AcDbLine
 10
0.0
 20
-10.4
 30
0.0
 11
0.0
 21
10.4
 31
0.0
  0
LINE
  5
2D1
330
1F
100
AcDbEntity
  8
1
  6
Continuous
 62
     4
370
    50
100
AcDbLine
 10
16.0
 20
-10.4
 30
0.0
 11
16.0
 21
10.4
 31
0.0
  0
LINE
  5
2D2
330
1F
100
AcDbEntity
  8
1
  6
Continuous
 62
     4
370
    50
100
AcDbLine
 10
19.0
 20
-12.125
 30
0.0
 11
19.0
 21
12.125
 31
0.0
  0
LINE
  5
2D3
330
1F
100
AcDbEntity
  8
1
  6
Continuous
 62
     4
370
    50
100
AcDbLine
 10
24.310951
 20
-12.5
 30
0.0
 11
24.310951
 21
12.5
 31
0.0
  0
LINE
  5
2D4
330
1F
100
AcDbEntity
  8
1
  6
Continuous
 62
     4
370
    50
100
AcDbLine
 10
35.5
 20
-12.5
 30
0.0
 11
35.5
 21
12.5
 31
0.0
  0
LINE
  5
2D5
330
1F
100
AcDbEntity
  8
1
  6
Continuous
 62
     4
370
    50
100
AcDbLine
 10
36.0
 20
-12.0
 30
0.0
 11
36.0
 21
12.0
 31
0.0
  0
ARC
  5
2D6
330
1F
100
AcDbEntity
  8
1
  6
Continuous
 62
     4
370
    50
100
AcDbCircle
 10
24.310952
 20
-12.0
 30
0.0
 40
0.4999999999999987
100
AcDbArc
 50
194.4774875005044
 51
269.9999369324614
  0
ARC
  5
2D7
330
1F
100
AcDbEntity
  8
1
  6
Continuous
 62
     4
370
    50
100
AcDbCircle
 10
24.310952
 20
12.0
 30
0.0
 40
0.4999999999999991
100
AcDbArc
 50
90.00006306753859
 51
165.5225124994956
  0
ARC
  5
2D8
330
1F
100
AcDbEntity
  8
1
  6
Continuous
 62
     4
370
    50
100
AcDbCircle
 10
35.5
 20
-12.0
 30
0.0
 40
0.5
100
AcDbArc
 50
270.0000000198475
 51
0.0
  0
ARC
  5
2D9
330
1F
100
AcDbEntity
  8
1
  6
Continuous
 62
     4
370
    50
100
AcDbCircle
 10
35.5
 20
12.0
 30
0.0
 40
0.5
100
AcDbArc
 50
0.0
 51
89.99999998015252
  0
ARC
  5
2DA
330
1F
100
AcDbEntity
  8
SK1
  6
Continuous
 62
     4
370
    50
100
AcDbCircle
 10
-1.0
 20
7.25
 30
0.0
 40
1.0
100
AcDbArc
 50
270.0
 51
0.0
  0
LINE
  5
2DB
330
1F
100
AcDbEntity
  8
SK1
  6
Continuous
 62
     4
370
    50
100
AcDbLine
 10
-1.0
 20
6.25
 30
0.0
 11
-7.0
 21
6.25
 31
0.0
  0
LINE
  5
2DC
330
1F
100
AcDbEntity
  8
SK1
  6
Continuous
 62
     4
370
    50
100
AcDbLine
 10
-7.0
 20
6.25
 30
0.0
 11
-7.0
 21
5.8
 31
0.0
  0
ARC
  5
2DD
330
1F
100
AcDbEntity
  8
SK1
  6
Continuous
 62
     4
370
    50
100
AcDbCircle
 10
-8.0
 20
5.8
 30
0.0
 40
1.0
100
AcDbArc
 50
270.0
 51
0.0
  0
LINE
  5
2DE
330
1F
100
AcDbEntity
  8
SK1
  6
Continuous
 62
     4
370
    50
100
AcDbLine
 10
-8.0
 20
4.8
 30
0.0
 11
-9.221539030917347
 21
4.8
 31
0.0
  0
LINE
  5
2DF
330
1F
100
AcDbEntity
  8
SK1
  6
Continuous
 62
     4
370
    50
100
AcDbLine
 10
-9.221539030917347
 20
4.8
 30
0.0
 11
-11.3
 21
6.0
 31
0.0
  0
LINE
  5
2E0
330
1F
100
AcDbEntity
  8
SK1
  6
Continuous
 62
     4
370
    50
100
AcDbLine
 10
-11.3
 20
6.0
 30
0.0
 11
-20.925
 21
6.0
 31
0.0
  0
LINE
  5
2E1
330
1F
100
AcDbEntity
  8
SK1
  6
Continuous
 62
     4
370
    50
100
AcDbLine
 10
-20.925
 20
6.0
 30
0.0
 11
-22.0
 21
4.925
 31
0.0
  0
LINE
  5
2E2
330
1F
100
AcDbEntity
  8
SK1
  6
Continuous
 62
     4
370
    50
100
AcDbLine
 10
-22.0
 20
4.925
 30
0.0
 11
-22.0
 21
-4.925
 31
0.0
  0
LINE
  5
2E3
330
1F
100
AcDbEntity
  8
SK1
  6
Continuous
 62
     4
370
    50
100
AcDbLine
 10
-22.0
 20
-4.925
 30
0.0
 11
-20.925
 21
-6.0
 31
0.0
  0
LINE
  5
2E4
330
1F
100
AcDbEntity
  8
SK1
  6
Continuous
 62
     4
370
    50
100
AcDbLine
 10
-20.925
 20
-6.0
 30
0.0
 11
-11.3
 21
-6.0
 31
0.0
  0
LINE
  5
2E5
330
1F
100
AcDbEntity
  8
SK1
  6
Continuous
 62
     4
370
    50
100
AcDbLine
 10
-11.3
 20
-6.0
 30
0.0
 11
-9.221539030917347
 21
-4.8
 31
0.0
  0
LINE
  5
2E6
330
1F
100
AcDbEntity
  8
SK1
  6
Continuous
 62
     4
370
    50
100
AcDbLine
 10
-9.221539030917347
 20
-4.8
 30
0.0
 11
-8.0
 21
-4.8
 31
0.0
  0
ARC
  5
2E7
330
1F
100
AcDbEntity
  8
SK1
  6
Continuous
 62
     4
370
    50
100
AcDbCircle
 10
-8.0
 20
-5.8
 30
0.0
 40
1.0
100
AcDbArc
 50
0.0
 51
90.0
  0
LINE
  5
2E8
330
1F
100
AcDbEntity
  8
SK1
  6
Continuous
 62
     4
370
    50
100
AcDbLine
 10
-7.0
 20
-5.8
 30
0.0
 11
-7.0
 21
-6.25
 31
0.0
  0
LINE
  5
2E9
330
1F
100
AcDbEntity
  8
SK1
  6
Continuous
 62
     4
370
    50
100
AcDbLine
 10
-7.0
 20
-6.25
 30
0.0
 11
-1.0
 21
-6.25
 31
0.0
  0
ARC
  5
2EA
330
1F
100
AcDbEntity
  8
SK1
  6
Continuous
 62
     4
370
    50
100
AcDbCircle
 10
-1.0
 20
-7.25
 30
0.0
 40
1.0
100
AcDbArc
 50
0.0
 51
90.0
  0
LINE
  5
2EB
330
1F
100
AcDbEntity
  8
NOCUT
  6
Continuous
 62
     7
370
    25
100
AcDbLine
 10
0.0
 20
0.0
 30
0.0
 11
0.0
 21
10.4
 31
0.0
  0
LINE
  5
2EC
330
1F
100
AcDbEntity
  8
NOCUT
  6
Continuous
 62
     7
370
    25
100
AcDbLine
 10
0.0
 20
10.4
 30
0.0
 11
16.0
 21
10.4
 31
0.0
  0
LINE
  5
2ED
330
1F
100
AcDbEntity
  8
NOCUT
  6
Continuous
 62
     7
370
    25
100
AcDbLine
 10
16.0
 20
0.0
 30
0.0
 11
0.0
 21
0.0
 31
0.0
  0
LINE
  5
2EE
330
1F
100
AcDbEntity
  8
SK2
  6
Continuous
 62
     7
370
    25
100
AcDbLine
 10
-22.0
 20
4.916486550000001
 30
0.0
 11
-22.0
 21
25.49149655
 31
0.0
  0
LINE
  5
2EF
330
1F
100
AcDbEntity
  8
SK2
  6
Continuous
 62
     7
370
    25
100
AcDbLine
 10
0.0000000000000001
 20
25.49149655
 30
0.0
 11
-0.0000000000000007
 21
12.49149655
 31
0.0
  0
LINE
  5
2F0
330
1F
100
AcDbEntity
  8
SK2
  6
Continuous
 62
     7
370
    25
100
AcDbLine
 10
-22.0
 20
24.49149655
 30
0.0
 11
0.0
 21
24.49149655
 31
0.0
  0
LINE
  5
2F1
330
1F
100
AcDbEntity
  8
SK2
  6
Continuous
 62
     7
370
    25
100
AcDbLine
 10
-22.0
 20
24.49149655
 30
0.0
 11
-17.0
 21
25.49149655
 31
0.0
  0
LINE
  5
2F2
330
1F
100
AcDbEntity
  8
SK2
  6
Continuous
 62
     7
370
    25
100
AcDbLine
 10
-17.0
 20
25.49149655
 30
0.0
 11
-17.0
 21
23.49149655
 31
0.0
  0
LINE
  5
2F3
330
1F
100
AcDbEntity
  8
SK2
  6
Continuous
 62
     7
370
    25
100
AcDbLine
 10
-17.0
 20
23.49149655
 30
0.0
 11
-22.0
 21
24.49149655
 31
0.0
  0
LINE
  5
2F4
330
1F
100
AcDbEntity
  8
SK2
  6
Continuous
 62
     7
370
    25
100
AcDbLine
 10
-17.19821170528762
 20
23.53113889105752
 30
0.0
 11
-17.0
 21
23.72935059634514
 31
0.0
  0
LINE
  5
2F5
330
1F
100
AcDbEntity
  8
SK2
  6
Continuous
 62
     7
370
    25
100
AcDbLine
 10
-17.55176509588089
 20
23.60184956917618
 30
0.0
 11
-17.0
 21
24.15361466505707
 31
0.0
  0
LINE
  5
2F6
330
1F
100
AcDbEntity
  8
SK2
  6
Continuous
 62
     7
370
    25
100
AcDbLine
 10
-17.90531848647416
 20
23.67256024729483
 30
0.0
 11
-17.0
 21
24.57787873376899
 31
0.0
  0
LINE
  5
2F7
330
1F
100
AcDbEntity
  8
SK2
  6
Continuous
 62
     7
370
    25
100
AcDbLine
 10
-18.25887187706743
 20
23.74327092541349
 30
0.0
 11
-17.0
 21
25.00214280248092
 31
0.0
  0
LINE
  5
2F8
330
1F
100
AcDbEntity
  8
SK2
  6
Continuous
 62
     7
370
    25
100
AcDbLine
 10
-18.61242526766071
 20
23.81398160353214
 30
0.0
 11
-17.0
 21
25.42640687119285
 31
0.0
  0
LINE
  5
2F9
330
1F
100
AcDbEntity
  8
SK2
  6
Continuous
 62
     7
370
    25
100
AcDbLine
 10
-18.96597865825398
 20
23.8846922816508
 30
0.0
 11
-17.44896798738097
 21
25.40170295252381
 31
0.0
  0
LINE
  5
2FA
330
1F
100
AcDbEntity
  8
SK2
  6
Continuous
 62
     7
370
    25
100
AcDbLine
 10
-19.31953204884725
 20
23.95540295976945
 30
0.0
 11
-17.97929807327088
 21
25.29563693534582
 31
0.0
  0
LINE
  5
2FB
330
1F
100
AcDbEntity
  8
SK2
  6
Continuous
 62
     7
370
    25
100
AcDbLine
 10
-19.67308543944053
 20
24.02611363788811
 30
0.0
 11
-18.50962815916079
 21
25.18957091816784
 31
0.0
  0
LINE
  5
2FC
330
1F
100
AcDbEntity
  8
SK2
  6
Continuous
 62
     7
370
    25
100
AcDbLine
 10
-20.02663883003379
 20
24.09682431600676
 30
0.0
 11
-19.03995824505069
 21
25.08350490098986
 31
0.0
  0
LINE
  5
2FD
330
1F
100
AcDbEntity
  8
SK2
  6
Continuous
 62
     7
370
    25
100
AcDbLine
 10
-20.38019222062707
 20
24.16753499412541
 30
0.0
 11
-19.57028833094061
 21
24.97743888381188
 31
0.0
  0
LINE
  5
2FE
330
1F
100
AcDbEntity
  8
SK2
  6
Continuous
 62
     7
370
    25
100
AcDbLine
 10
-20.73374561122034
 20
24.23824567224407
 30
0.0
 11
-20.10061841683051
 21
24.8713728666339
 31
0.0
  0
LINE
  5
2FF
330
1F
100
AcDbEntity
  8
SK2
  6
Continuous
 62
     7
370
    25
100
AcDbLine
 10
-21.08729900181362
 20
24.30895635036272
 30
0.0
 11
-20.63094850272043
 21
24.76530684945591
 31
0.0
  0
LINE
  5
300
330
1F
100
AcDbEntity
  8
SK2
  6
Continuous
 62
     7
370
    25
100
AcDbLine
 10
-21.44085239240689
 20
24.37966702848138
 30
0.0
 11
-21.16127858861033
 21
24.65924083227793
 31
0.0
  0
LINE
  5
301
330
1F
100
AcDbEntity
  8
SK2
  6
Continuous
 62
     7
370
    25
100
AcDbLine
 10
-21.79440578300016
 20
24.45037770660003
 30
0.0
 11
-21.69160867450024
 21
24.55317481509995
 31
0.0
  0
LINE
  5
302
330
1F
100
AcDbEntity
  8
SK2
  6
Continuous
 62
     7
370
    25
100
AcDbLine
 10
-21.95492678144045
 20
24.50051119371191
 30
0.0
 11
-21.93239017216068
 21
24.47797458443214
 31
0.0
  0
LINE
  5
303
330
1F
100
AcDbEntity
  8
SK2
  6
Continuous
 62
     7
370
    25
100
AcDbLine
 10
-21.60137339084718
 20
24.57122187183056
 30
0.0
 11
-21.40206008627078
 21
24.37190856725416
 31
0.0
  0
LINE
  5
304
330
1F
100
AcDbEntity
  8
SK2
  6
Continuous
 62
     7
370
    25
100
AcDbLine
 10
-21.24782000025391
 20
24.64193254994921
 30
0.0
 11
-20.87173000038087
 21
24.26584255007618
 31
0.0
  0
LINE
  5
305
330
1F
100
AcDbEntity
  8
SK2
  6
Continuous
 62
     7
370
    25
100
AcDbLine
 10
-20.89426660966063
 20
24.71264322806787
 30
0.0
 11
-20.34139991449096
 21
24.1597765328982
 31
0.0
  0
LINE
  5
306
330
1F
100
AcDbEntity
  8
SK2
  6
Continuous
 62
     7
370
    25
100
AcDbLine
 10
-20.54071321906736
 20
24.78335390618653
 30
0.0
 11
-19.81106982860105
 21
24.05371051572022
 31
0.0
  0
LINE
  5
307
330
1F
100
AcDbEntity
  8
SK2
  6
Continuous
 62
     7
370
    25
100
AcDbLine
 10
-20.18715982847409
 20
24.85406458430518
 30
0.0
 11
-19.28073974271114
 21
23.94764449854223
 31
0.0
  0
LINE
  5
308
330
1F
100
AcDbEntity
  8
SK2
  6
Continuous
 62
     7
370
    25
100
AcDbLine
 10
-19.83360643788081
 20
24.92477526242384
 30
0.0
 11
-18.75040965682123
 21
23.84157848136425
 31
0.0
  0
LINE
  5
309
330
1F
100
AcDbEntity
  8
SK2
  6
Continuous
 62
     7
370
    25
100
AcDbLine
 10
-19.48005304728754
 20
24.99548594054249
 30
0.0
 11
-18.22007957093132
 21
23.73551246418627
 31
0.0
  0
LINE
  5
30A
330
1F
100
AcDbEntity
  8
SK2
  6
Continuous
 62
     7
370
    25
100
AcDbLine
 10
-19.12649965669427
 20
25.06619661866115
 30
0.0
 11
-17.68974948504141
 21
23.62944644700828
 31
0.0
  0
LINE
  5
30B
330
1F
100
AcDbEntity
  8
SK2
  6
Continuous
 62
     7
370
    25
100
AcDbLine
 10
-18.77294626610099
 20
25.1369072967798
 30
0.0
 11
-17.1594193991515
 21
23.5233804298303
 31
0.0
  0
LINE
  5
30C
330
1F
100
AcDbEntity
  8
SK2
  6
Continuous
 62
     7
370
    25
100
AcDbLine
 10
-18.41939287550772
 20
25.20761797489845
 30
0.0
 11
-17.0
 21
23.78822509939073
 31
0.0
  0
LINE
  5
30D
330
1F
100
AcDbEntity
  8
SK2
  6
Continuous
 62
     7
370
    25
100
AcDbLine
 10
-18.06583948491445
 20
25.27832865301711
 30
0.0
 11
-17.0
 21
24.21248916810266
 31
0.0
  0
LINE
  5
30E
330
1F
100
AcDbEntity
  8
SK2
  6
Continuous
 62
     7
370
    25
100
AcDbLine
 10
-17.71228609432118
 20
25.34903933113576
 30
0.0
 11
-17.0
 21
24.63675323681459
 31
0.0
  0
LINE
  5
30F
330
1F
100
AcDbEntity
  8
SK2
  6
Continuous
 62
     7
370
    25
100
AcDbLine
 10
-17.3587327037279
 20
25.41975000925442
 30
0.0
 11
-17.0
 21
25.06101730552652
 31
0.0
  0
LINE
  5
310
330
1F
100
AcDbEntity
  8
SK2
  6
Continuous
 62
     7
370
    25
100
AcDbLine
 10
-17.00517931313463
 20
25.49046068737307
 30
0.0
 11
-17.0
 21
25.48528137423844
 31
0.0
  0
LINE
  5
311
330
1F
100
AcDbEntity
  8
SK2
  6
Continuous
 62
     7
370
    25
100
AcDbLine
 10
0.0
 20
24.49149655
 30
0.0
 11
-5.0
 21
23.49149655
 31
0.0
  0
LINE
  5
312
330
1F
100
AcDbEntity
  8
SK2
  6
Continuous
 62
     7
370
    25
100
AcDbLine
 10
-5.0
 20
23.49149655
 30
0.0
 11
-5.0
 21
25.49149655
 31
0.0
  0
LINE
  5
313
330
1F
100
AcDbEntity
  8
SK2
  6
Continuous
 62
     7
370
    25
100
AcDbLine
 10
-5.0
 20
25.49149655
 30
0.0
 11
0.0
 21
24.49149655
 31
0.0
  0
LINE
  5
314
330
1F
100
AcDbEntity
  8
SK2
  6
Continuous
 62
     7
370
    25
100
AcDbLine
 10
-0.1447742941147778
 20
24.46254169117704
 30
0.0
 11
-0.0965161960765186
 21
24.51079978921531
 31
0.0
  0
LINE
  5
315
330
1F
100
AcDbEntity
  8
SK2
  6
Continuous
 62
     7
370
    25
100
AcDbLine
 10
-0.6751043800046916
 20
24.35647567399906
 30
0.0
 11
-0.4500695866697945
 21
24.58151046733396
 31
0.0
  0
LINE
  5
316
330
1F
100
AcDbEntity
  8
SK2
  6
Continuous
 62
     7
370
    25
100
AcDbLine
 10
-1.205434465894601
 20
24.25040965682108
 30
0.0
 11
-0.8036229772630675
 21
24.65222114545261
 31
0.0
  0
LINE
  5
317
330
1F
100
AcDbEntity
  8
SK2
  6
Continuous
 62
     7
370
    25
100
AcDbLine
 10
-1.73576455178451
 20
24.1443436396431
 30
0.0
 11
-1.15717636785634
 21
24.72293182357127
 31
0.0
  0
LINE
  5
318
330
1F
100
AcDbEntity
  8
SK2
  6
Continuous
 62
     7
370
    25
100
AcDbLine
 10
-2.266094637674419
 20
24.03827762246512
 30
0.0
 11
-1.510729758449613
 21
24.79364250168992
 31
0.0
  0
LINE
  5
319
330
1F
100
AcDbEntity
  8
SK2
  6
Continuous
 62
     7
370
    25
100
AcDbLine
 10
-2.796424723564328
 20
23.93221160528714
 30
0.0
 11
-1.864283149042886
 21
24.86435317980858
 31
0.0
  0
LINE
  5
31A
330
1F
100
AcDbEntity
  8
SK2
  6
Continuous
 62
     7
370
    25
100
AcDbLine
 10
-3.326754809454238
 20
23.82614558810915
 30
0.0
 11
-2.217836539636159
 21
24.93506385792723
 31
0.0
  0
LINE
  5
31B
330
1F
100
AcDbEntity
  8
SK2
  6
Continuous
 62
     7
370
    25
100
AcDbLine
 10
-3.857084895344147
 20
23.72007957093117
 30
0.0
 11
-2.571389930229432
 21
25.00577453604589
 31
0.0
  0
LINE
  5
31C
330
1F
100
AcDbEntity
  8
SK2
  6
Continuous
 62
     7
370
    25
100
AcDbLine
 10
-4.387414981234056
 20
23.61401355375319
 30
0.0
 11
-2.924943320822705
 21
25.07648521416454
 31
0.0
  0
LINE
  5
31D
330
1F
100
AcDbEntity
  8
SK2
  6
Continuous
 62
     7
370
    25
100
AcDbLine
 10
-4.917745067123964
 20
23.50794753657521
 30
0.0
 11
-3.278496711415977
 21
25.1471958922832
 31
0.0
  0
LINE
  5
31E
330
1F
100
AcDbEntity
  8
SK2
  6
Continuous
 62
     7
370
    25
100
AcDbLine
 10
-5.0
 20
23.8499566724111
 30
0.0
 11
-3.63205010200925
 21
25.21790657040185
 31
0.0
  0
LINE
  5
31F
330
1F
100
AcDbEntity
  8
SK2
  6
Continuous
 62
     7
370
    25
100
AcDbLine
 10
-5.0
 20
24.27422074112303
 30
0.0
 11
-3.985603492602523
 21
25.28861724852051
 31
0.0
  0
LINE
  5
320
330
1F
100
AcDbEntity
  8
SK2
  6
Continuous
 62
     7
370
    25
100
AcDbLine
 10
-5.0
 20
24.69848480983496
 30
0.0
 11
-4.339156883195796
 21
25.35932792663916
 31
0.0
  0
LINE
  5
321
330
1F
100
AcDbEntity
  8
SK2
  6
Continuous
 62
     7
370
    25
100
AcDbLine
 10
-5.0
 20
25.12274887854688
 30
0.0
 11
-4.692710273789069
 21
25.43003860475782
 31
0.0
  0
LINE
  5
322
330
1F
100
AcDbEntity
  8
SK2
  6
Continuous
 62
     7
370
    25
100
AcDbLine
 10
-5.0
 20
23.66761902332482
 30
0.0
 11
-4.853231272229316
 21
23.52085029555414
 31
0.0
  0
LINE
  5
323
330
1F
100
AcDbEntity
  8
SK2
  6
Continuous
 62
     7
370
    25
100
AcDbLine
 10
-5.0
 20
24.09188309203675
 30
0.0
 11
-4.499677881636046
 21
23.59156097367279
 31
0.0
  0
LINE
  5
324
330
1F
100
AcDbEntity
  8
SK2
  6
Continuous
 62
     7
370
    25
100
AcDbLine
 10
-5.0
 20
24.51614716074867
 30
0.0
 11
-4.146124491042773
 21
23.66227165179145
 31
0.0
  0
LINE
  5
325
330
1F
100
AcDbEntity
  8
SK2
  6
Continuous
 62
     7
370
    25
100
AcDbLine
 10
-5.0
 20
24.9404112294606
 30
0.0
 11
-3.792571100449499
 21
23.7329823299101
 31
0.0
  0
LINE
  5
326
330
1F
100
AcDbEntity
  8
SK2
  6
Continuous
 62
     7
370
    25
100
AcDbLine
 10
-5.0
 20
25.36467529817253
 30
0.0
 11
-3.439017709856223
 21
23.80369300802876
 31
0.0
  0
LINE
  5
327
330
1F
100
AcDbEntity
  8
SK2
  6
Continuous
 62
     7
370
    25
100
AcDbLine
 10
-4.628196478894427
 20
25.41713584577889
 30
0.0
 11
-3.08546431926295
 21
23.87440368614741
 31
0.0
  0
LINE
  5
328
330
1F
100
AcDbEntity
  8
SK2
  6
Continuous
 62
     7
370
    25
100
AcDbLine
 10
-4.097866393004517
 20
25.3110698286009
 30
0.0
 11
-2.731910928669676
 21
23.94511436426606
 31
0.0
  0
LINE
  5
329
330
1F
100
AcDbEntity
  8
SK2
  6
Continuous
 62
     7
370
    25
100
AcDbLine
 10
-3.567536307114606
 20
25.20500381142292
 30
0.0
 11
-2.378357538076402
 21
24.01582504238472
 31
0.0
  0
LINE
  5
32A
330
1F
100
AcDbEntity
  8
SK2
  6
Continuous
 62
     7
370
    25
100
AcDbLine
 10
-3.0372062212247
 20
25.09893779424494
 30
0.0
 11
-2.024804147483132
 21
24.08653572050337
 31
0.0
  0
LINE
  5
32B
330
1F
100
AcDbEntity
  8
SK2
  6
Continuous
 62
     7
370
    25
100
AcDbLine
 10
-2.506876135334785
 20
24.99287177706696
 30
0.0
 11
-1.671250756889855
 21
24.15724639862203
 31
0.0
  0
LINE
  5
32C
330
1F
100
AcDbEntity
  8
SK2
  6
Continuous
 62
     7
370
    25
100
AcDbLine
 10
-1.976546049444879
 20
24.88680575988898
 30
0.0
 11
-1.317697366296585
 21
24.22795707674068
 31
0.0
  0
LINE
  5
32D
330
1F
100
AcDbEntity
  8
SK2
  6
Continuous
 62
     7
370
    25
100
AcDbLine
 10
-1.446215963554968
 20
24.780739742711
 30
0.0
 11
-0.964143975703311
 21
24.29866775485934
 31
0.0
  0
LINE
  5
32E
330
1F
100
AcDbEntity
  8
SK2
  6
Continuous
 62
     7
370
    25
100
AcDbLine
 10
-0.9158858776650569
 20
24.67467372553301
 30
0.0
 11
-0.6105905851100374
 21
24.36937843297799
 31
0.0
  0
LINE
  5
32F
330
1F
100
AcDbEntity
  8
SK2
  6
Continuous
 62
     7
370
    25
100
AcDbLine
 10
-0.385555791775146
 20
24.56860770835503
 30
0.0
 11
-0.2570371945167638
 21
24.44008911109665
 31
0.0
  0
TEXT
  5
330
330
1F
100
AcDbEntity
  8
SK2
  6
Continuous
 62
     7
370
    25
100
AcDbText
 10
-14.031
 20
25.99149655
 30
0.0
 40
3.5
  1
22
 72
     1
 11
-11.0
 21
25.99149655
 31
0.0
100
AcDbText
  0
LINE
  5
331
330
1F
100
AcDbEntity
  8
2
  6
Continuous
 62
     7
370
    25
100
AcDbLine
 10
0.0
 20
-12.49149655
 30
0.0
 11
-0.0000000000000008
 21
-25.49149655
 31
0.0
  0
LINE
  5
332
330
1F
100
AcDbEntity
  8
2
  6
Continuous
 62
     7
370
    25
100
AcDbLine
 10
16.0
 20
-25.49149655
 30
0.0
 11
16.0
 21
-12.49149655
 31
0.0
  0
LINE
  5
333
330
1F
100
AcDbEntity
  8
2
  6
Continuous
 62
     7
370
    25
100
AcDbLine
 10
0.0
 20
-24.49149655
 30
0.0
 11
16.0
 21
-24.49149655
 31
0.0
  0
LINE
  5
334
330
1F
100
AcDbEntity
  8
2
  6
Continuous
 62
     7
370
    25
100
AcDbLine
 10
0.0
 20
-24.49149655
 30
0.0
 11
5.0
 21
-23.49149655
 31
0.0
  0
LINE
  5
335
330
1F
100
AcDbEntity
  8
2
  6
Continuous
 62
     7
370
    25
100
AcDbLine
 10
5.0
 20
-23.49149655
 30
0.0
 11
5.0
 21
-25.49149655
 31
0.0
  0
LINE
  5
336
330
1F
100
AcDbEntity
  8
2
  6
Continuous
 62
     7
370
    25
100
AcDbLine
 10
5.0
 20
-25.49149655
 30
0.0
 11
0.0
 21
-24.49149655
 31
0.0
  0
LINE
  5
337
330
1F
100
AcDbEntity
  8
2
  6
Continuous
 62
     7
370
    25
100
AcDbLine
 10
4.687318157151735
 20
-25.42896018143035
 30
0.0
 11
5.0
 21
-25.11627833858208
 31
0.0
  0
LINE
  5
338
330
1F
100
AcDbEntity
  8
2
  6
Continuous
 62
     7
370
    25
100
AcDbLine
 10
4.333764766558462
 20
-25.35824950331169
 30
0.0
 11
5.0
 21
-24.69201426987016
 31
0.0
  0
LINE
  5
339
330
1F
100
AcDbEntity
  8
2
  6
Continuous
 62
     7
370
    25
100
AcDbLine
 10
3.980211375965188
 20
-25.28753882519304
 30
0.0
 11
5.0
 21
-24.26775020115823
 31
0.0
  0
LINE
  5
33A
330
1F
100
AcDbEntity
  8
2
  6
Continuous
 62
     7
370
    25
100
AcDbLine
 10
3.626657985371916
 20
-25.21682814707438
 30
0.0
 11
5.0
 21
-23.8434861324463
 31
0.0
  0
LINE
  5
33B
330
1F
100
AcDbEntity
  8
2
  6
Continuous
 62
     7
370
    25
100
AcDbLine
 10
3.273104594778642
 20
-25.14611746895573
 30
0.0
 11
4.909656892167965
 21
-23.50956517156641
 31
0.0
  0
LINE
  5
33C
330
1F
100
AcDbEntity
  8
2
  6
Continuous
 62
     7
370
    25
100
AcDbLine
 10
2.919551204185369
 20
-25.07540679083708
 30
0.0
 11
4.379326806278056
 21
-23.61563118874439
 31
0.0
  0
LINE
  5
33D
330
1F
100
AcDbEntity
  8
2
  6
Continuous
 62
     7
370
    25
100
AcDbLine
 10
2.565997813592096
 20
-25.00469611271842
 30
0.0
 11
3.848996720388146
 21
-23.72169720592237
 31
0.0
  0
LINE
  5
33E
330
1F
100
AcDbEntity
  8
2
  6
Continuous
 62
     7
370
    25
100
AcDbLine
 10
2.212444422998823
 20
-24.93398543459977
 30
0.0
 11
3.318666634498237
 21
-23.82776322310036
 31
0.0
  0
LINE
  5
33F
330
1F
100
AcDbEntity
  8
2
  6
Continuous
 62
     7
370
    25
100
AcDbLine
 10
1.85889103240555
 20
-24.86327475648111
 30
0.0
 11
2.788336548608326
 21
-23.93382924027834
 31
0.0
  0
LINE
  5
340
330
1F
100
AcDbEntity
  8
2
  6
Continuous
 62
     7
370
    25
100
AcDbLine
 10
1.505337641812274
 20
-24.79256407836246
 30
0.0
 11
2.258006462718412
 21
-24.03989525745632
 31
0.0
  0
LINE
  5
341
330
1F
100
AcDbEntity
  8
2
  6
Continuous
 62
     7
370
    25
100
AcDbLine
 10
1.151784251219
 20
-24.7218534002438
 30
0.0
 11
1.727676376828502
 21
-24.1459612746343
 31
0.0
  0
LINE
  5
342
330
1F
100
AcDbEntity
  8
2
  6
Continuous
 62
     7
370
    25
100
AcDbLine
 10
0.7982308606257272
 20
-24.65114272212515
 30
0.0
 11
1.197346290938591
 21
-24.25202729181228
 31
0.0
  0
LINE
  5
343
330
1F
100
AcDbEntity
  8
2
  6
Continuous
 62
     7
370
    25
100
AcDbLine
 10
0.4446774700324541
 20
-24.58043204400649
 30
0.0
 11
0.6670162050486814
 21
-24.35809330899026
 31
0.0
  0
LINE
  5
344
330
1F
100
AcDbEntity
  8
2
  6
Continuous
 62
     7
370
    25
100
AcDbLine
 10
0.0911240794391807
 20
-24.50972136588784
 30
0.0
 11
0.1366861191587711
 21
-24.46415932616825
 31
0.0
  0
LINE
  5
345
330
1F
100
AcDbEntity
  8
2
  6
Continuous
 62
     7
370
    25
100
AcDbLine
 10
0.1104812702488546
 20
-24.46940029595023
 30
0.0
 11
0.1657219053732819
 21
-24.52464093107466
 31
0.0
  0
LINE
  5
346
330
1F
100
AcDbEntity
  8
2
  6
Continuous
 62
     7
370
    25
100
AcDbLine
 10
0.4640346608421309
 20
-24.39868961783158
 30
0.0
 11
0.6960519912631966
 21
-24.63070694825264
 31
0.0
  0
LINE
  5
347
330
1F
100
AcDbEntity
  8
2
  6
Continuous
 62
     7
370
    25
100
AcDbLine
 10
0.8175880514354044
 20
-24.32797893971292
 30
0.0
 11
1.226382077153107
 21
-24.73677296543062
 31
0.0
  0
LINE
  5
348
330
1F
100
AcDbEntity
  8
2
  6
Continuous
 62
     7
370
    25
100
AcDbLine
 10
1.171141442028678
 20
-24.25726826159427
 30
0.0
 11
1.756712163043017
 21
-24.8428389826086
 31
0.0
  0
LINE
  5
349
330
1F
100
AcDbEntity
  8
2
  6
Continuous
 62
     7
370
    25
100
AcDbLine
 10
1.524694832621951
 20
-24.18655758347561
 30
0.0
 11
2.287042248932928
 21
-24.94890499978658
 31
0.0
  0
LINE
  5
34A
330
1F
100
AcDbEntity
  8
2
  6
Continuous
 62
     7
370
    25
100
AcDbLine
 10
1.878248223215224
 20
-24.11584690535696
 30
0.0
 11
2.817372334822838
 21
-25.05497101696457
 31
0.0
  0
LINE
  5
34B
330
1F
100
AcDbEntity
  8
2
  6
Continuous
 62
     7
370
    25
100
AcDbLine
 10
2.231801613808498
 20
-24.0451362272383
 30
0.0
 11
3.347702420712748
 21
-25.16103703414255
 31
0.0
  0
LINE
  5
34C
330
1F
100
AcDbEntity
  8
2
  6
Continuous
 62
     7
370
    25
100
AcDbLine
 10
2.585355004401771
 20
-23.97442554911965
 30
0.0
 11
3.878032506602659
 21
-25.26710305132053
 31
0.0
  0
LINE
  5
34D
330
1F
100
AcDbEntity
  8
2
  6
Continuous
 62
     7
370
    25
100
AcDbLine
 10
2.938908394995044
 20
-23.90371487100099
 30
0.0
 11
4.408362592492569
 21
-25.37316906849852
 31
0.0
  0
LINE
  5
34E
330
1F
100
AcDbEntity
  8
2
  6
Continuous
 62
     7
370
    25
100
AcDbLine
 10
3.292461785588317
 20
-23.83300419288234
 30
0.0
 11
4.938692678382479
 21
-25.4792350856765
 31
0.0
  0
LINE
  5
34F
330
1F
100
AcDbEntity
  8
2
  6
Continuous
 62
     7
370
    25
100
AcDbLine
 10
3.646015176181591
 20
-23.76229351476368
 30
0.0
 11
5.0
 21
-25.11627833858209
 31
0.0
  0
LINE
  5
350
330
1F
100
AcDbEntity
  8
2
  6
Continuous
 62
     7
370
    25
100
AcDbLine
 10
3.999568566774864
 20
-23.69158283664503
 30
0.0
 11
5.0
 21
-24.69201426987016
 31
0.0
  0
LINE
  5
351
330
1F
100
AcDbEntity
  8
2
  6
Continuous
 62
     7
370
    25
100
AcDbLine
 10
4.353121957368137
 20
-23.62087215852637
 30
0.0
 11
5.0
 21
-24.26775020115824
 31
0.0
  0
LINE
  5
352
330
1F
100
AcDbEntity
  8
2
  6
Continuous
 62
     7
370
    25
100
AcDbLine
 10
4.706675347961411
 20
-23.55016148040772
 30
0.0
 11
5.0
 21
-23.84348613244631
 31
0.0
  0
LINE
  5
353
330
1F
100
AcDbEntity
  8
2
  6
Continuous
 62
     7
370
    25
100
AcDbLine
 10
16.0
 20
-24.49149655
 30
0.0
 11
11.0
 21
-25.49149655
 31
0.0
  0
LINE
  5
354
330
1F
100
AcDbEntity
  8
2
  6
Continuous
 62
     7
370
    25
100
AcDbLine
 10
11.0
 20
-25.49149655
 30
0.0
 11
11.0
 21
-23.49149655
 31
0.0
  0
LINE
  5
355
330
1F
100
AcDbEntity
  8
2
  6
Continuous
 62
     7
370
    25
100
AcDbLine
 10
11.0
 20
-23.49149655
 30
0.0
 11
16.0
 21
-24.49149655
 31
0.0
  0
LINE
  5
356
330
1F
100
AcDbEntity
  8
2
  6
Continuous
 62
     7
370
    25
100
AcDbLine
 10
15.68173483081009
 20
-24.55514958383798
 30
0.0
 11
15.78782322054006
 21
-24.44906119410801
 31
0.0
  0
LINE
  5
357
330
1F
100
AcDbEntity
  8
2
  6
Continuous
 62
     7
370
    25
100
AcDbLine
 10
15.15140474492018
 20
-24.66121560101596
 30
0.0
 11
15.43426982994679
 21
-24.37835051598936
 31
0.0
  0
LINE
  5
358
330
1F
100
AcDbEntity
  8
2
  6
Continuous
 62
     7
370
    25
100
AcDbLine
 10
14.62107465903027
 20
-24.76728161819394
 30
0.0
 11
15.08071643935351
 21
-24.3076398378707
 31
0.0
  0
LINE
  5
359
330
1F
100
AcDbEntity
  8
2
  6
Continuous
 62
     7
370
    25
100
AcDbLine
 10
14.09074457314036
 20
-24.87334763537193
 30
0.0
 11
14.72716304876024
 21
-24.23692915975205
 31
0.0
  0
LINE
  5
35A
330
1F
100
AcDbEntity
  8
2
  6
Continuous
 62
     7
370
    25
100
AcDbLine
 10
13.56041448725045
 20
-24.97941365254991
 30
0.0
 11
14.37360965816696
 21
-24.1662184816334
 31
0.0
  0
LINE
  5
35B
330
1F
100
AcDbEntity
  8
2
  6
Continuous
 62
     7
370
    25
100
AcDbLine
 10
13.03008440136054
 20
-25.08547966972789
 30
0.0
 11
14.02005626757369
 21
-24.09550780351474
 31
0.0
  0
LINE
  5
35C
330
1F
100
AcDbEntity
  8
2
  6
Continuous
 62
     7
370
    25
100
AcDbLine
 10
12.49975431547063
 20
-25.19154568690587
 30
0.0
 11
13.66650287698042
 21
-24.02479712539609
 31
0.0
  0
LINE
  5
35D
330
1F
100
AcDbEntity
  8
2
  6
Continuous
 62
     7
370
    25
100
AcDbLine
 10
11.96942422958072
 20
-25.29761170408386
 30
0.0
 11
13.31294948638715
 21
-23.95408644727743
 31
0.0
  0
LINE
  5
35E
330
1F
100
AcDbEntity
  8
2
  6
Continuous
 62
     7
370
    25
100
AcDbLine
 10
11.43909414369081
 20
-25.40367772126184
 30
0.0
 11
12.95939609579387
 21
-23.88337576915877
 31
0.0
  0
LINE
  5
35F
330
1F
100
AcDbEntity
  8
2
  6
Continuous
 62
     7
370
    25
100
AcDbLine
 10
11.0
 20
-25.41850779624072
 30
0.0
 11
12.6058427052006
 21
-23.81266509104012
 31
0.0
  0
LINE
  5
360
330
1F
100
AcDbEntity
  8
2
  6
Continuous
 62
     7
370
    25
100
AcDbLine
 10
11.0
 20
-24.99424372752879
 30
0.0
 11
12.25228931460733
 21
-23.74195441292147
 31
0.0
  0
LINE
  5
361
330
1F
100
AcDbEntity
  8
2
  6
Continuous
 62
     7
370
    25
100
AcDbLine
 10
11.0
 20
-24.56997965881687
 30
0.0
 11
11.89873592401405
 21
-23.67124373480281
 31
0.0
  0
LINE
  5
362
330
1F
100
AcDbEntity
  8
2
  6
Continuous
 62
     7
370
    25
100
AcDbLine
 10
11.0
 20
-24.14571559010494
 30
0.0
 11
11.54518253342078
 21
-23.60053305668416
 31
0.0
  0
LINE
  5
363
330
1F
100
AcDbEntity
  8
2
  6
Continuous
 62
     7
370
    25
100
AcDbLine
 10
11.0
 20
-23.72145152139301
 30
0.0
 11
11.19162914282751
 21
-23.52982237856551
 31
0.0
  0
LINE
  5
364
330
1F
100
AcDbEntity
  8
2
  6
Continuous
 62
     7
370
    25
100
AcDbLine
 10
11.0
 20
-25.23831294963538
 30
0.0
 11
11.21098633363718
 21
-25.44929928327257
 31
0.0
  0
LINE
  5
365
330
1F
100
AcDbEntity
  8
2
  6
Continuous
 62
     7
370
    25
100
AcDbLine
 10
11.0
 20
-24.81404888092345
 30
0.0
 11
11.56453972423046
 21
-25.37858860515391
 31
0.0
  0
LINE
  5
366
330
1F
100
AcDbEntity
  8
2
  6
Continuous
 62
     7
370
    25
100
AcDbLine
 10
11.0
 20
-24.38978481221153
 30
0.0
 11
11.91809311482373
 21
-25.30787792703526
 31
0.0
  0
LINE
  5
367
330
1F
100
AcDbEntity
  8
2
  6
Continuous
 62
     7
370
    25
100
AcDbLine
 10
11.0
 20
-23.9655207434996
 30
0.0
 11
12.271646505417
 21
-25.2371672489166
 31
0.0
  0
LINE
  5
368
330
1F
100
AcDbEntity
  8
2
  6
Continuous
 62
     7
370
    25
100
AcDbLine
 10
11.0
 20
-23.54125667478768
 30
0.0
 11
12.62519989601027
 21
-25.16645657079795
 31
0.0
  0
LINE
  5
369
330
1F
100
AcDbEntity
  8
2
  6
Continuous
 62
     7
370
    25
100
AcDbLine
 10
11.46812992990532
 20
-23.58512253598106
 30
0.0
 11
12.97875328660355
 21
-25.09574589267929
 31
0.0
  0
LINE
  5
36A
330
1F
100
AcDbEntity
  8
2
  6
Continuous
 62
     7
370
    25
100
AcDbLine
 10
11.99846001579523
 20
-23.69118855315905
 30
0.0
 11
13.33230667719682
 21
-25.02503521456064
 31
0.0
  0
LINE
  5
36B
330
1F
100
AcDbEntity
  8
2
  6
Continuous
 62
     7
370
    25
100
AcDbLine
 10
12.52879010168514
 20
-23.79725457033703
 30
0.0
 11
13.68586006779009
 21
-24.95432453644198
 31
0.0
  0
LINE
  5
36C
330
1F
100
AcDbEntity
  8
2
  6
Continuous
 62
     7
370
    25
100
AcDbLine
 10
13.05912018757505
 20
-23.90332058751501
 30
0.0
 11
14.03941345838337
 21
-24.88361385832333
 31
0.0
  0
LINE
  5
36D
330
1F
100
AcDbEntity
  8
2
  6
Continuous
 62
     7
370
    25
100
AcDbLine
 10
13.58945027346496
 20
-24.00938660469299
 30
0.0
 11
14.39296684897664
 21
-24.81290318020467
 31
0.0
  0
LINE
  5
36E
330
1F
100
AcDbEntity
  8
2
  6
Continuous
 62
     7
370
    25
100
AcDbLine
 10
14.11978035935487
 20
-24.11545262187097
 30
0.0
 11
14.74652023956991
 21
-24.74219250208602
 31
0.0
  0
LINE
  5
36F
330
1F
100
AcDbEntity
  8
2
  6
Continuous
 62
     7
370
    25
100
AcDbLine
 10
14.65011044524478
 20
-24.22151863904896
 30
0.0
 11
15.10007363016319
 21
-24.67148182396736
 31
0.0
  0
LINE
  5
370
330
1F
100
AcDbEntity
  8
2
  6
Continuous
 62
     7
370
    25
100
AcDbLine
 10
15.18044053113469
 20
-24.32758465622694
 30
0.0
 11
15.45362702075646
 21
-24.60077114584871
 31
0.0
  0
LINE
  5
371
330
1F
100
AcDbEntity
  8
2
  6
Continuous
 62
     7
370
    25
100
AcDbLine
 10
15.7107706170246
 20
-24.43365067340492
 30
0.0
 11
15.80718041134973
 21
-24.53006046773005
 31
0.0
  0
TEXT
  5
372
330
1F
100
AcDbEntity
  8
2
  6
Continuous
 62
     7
370
    25
100
AcDbText
 10
4.968999999999999
 20
-22.99149655
 30
0.0
 40
3.5
  1
16
 72
     1
 11
7.999999999999999
 21
-22.99149655
 31
0.0
100
AcDbText
  0
LINE
  5
373
330
1F
100
AcDbEntity
  8
SK2
  6
Continuous
 62
     7
370
    25
100
AcDbLine
 10
-34.00001020000001
 20
-10.400001
 30
0.0
 11
-35.00001000000003
 21
-10.400001
 31
0.0
  0
LINE
  5
374
330
1F
100
AcDbEntity
  8
SK2
  6
Continuous
 62
     7
370
    25
100
AcDbLine
 10
-0.0000099999999996
 20
-10.400001
 30
0.0
 11
-34.0000098
 21
-10.400001
 31
0.0
  0
LINE
  5
375
330
1F
100
AcDbEntity
  8
SK2
  6
Continuous
 62
     7
370
    25
100
AcDbLine
 10
-35.00001
 20
10.4
 30
0.0
 11
-0.0000100000000032
 21
10.4
 31
0.0
  0
LINE
  5
376
330
1F
100
AcDbEntity
  8
SK2
  6
Continuous
 62
     7
370
    25
100
AcDbLine
 10
-34.00001
 20
-17.4
 30
0.0
 11
-34.00001
 21
17.4
 31
0.0
  0
LINE
  5
377
330
1F
100
AcDbEntity
  8
SK2
  6
Continuous
 62
     7
370
    25
100
AcDbLine
 10
-34.00001
 20
-10.4
 30
0.0
 11
-33.00001
 21
-15.4
 31
0.0
  0
LINE
  5
378
330
1F
100
AcDbEntity
  8
SK2
  6
Continuous
 62
     7
370
    25
100
AcDbLine
 10
-33.00001
 20
-15.4
 30
0.0
 11
-35.00001
 21
-15.4
 31
0.0
  0
LINE
  5
379
330
1F
100
AcDbEntity
  8
SK2
  6
Continuous
 62
     7
370
    25
100
AcDbLine
 10
-35.00001
 20
-15.4
 30
0.0
 11
-34.00001
 21
-10.4
 31
0.0
  0
LINE
  5
37A
330
1F
100
AcDbEntity
  8
SK2
  6
Continuous
 62
     7
370
    25
100
AcDbLine
 10
-33.21909088590095
 20
-15.4
 30
0.0
 11
-33.03652348098349
 21
-15.21743259508255
 31
0.0
  0
LINE
  5
37B
330
1F
100
AcDbEntity
  8
SK2
  6
Continuous
 62
     7
370
    25
100
AcDbLine
 10
-33.64335495461287
 20
-15.4
 30
0.0
 11
-33.10723415910215
 21
-14.86387920448927
 31
0.0
  0
LINE
  5
37C
330
1F
100
AcDbEntity
  8
SK2
  6
Continuous
 62
     7
370
    25
100
AcDbLine
 10
-34.06761902332481
 20
-15.4
 30
0.0
 11
-33.1779448372208
 21
-14.510325813896
 31
0.0
  0
LINE
  5
37D
330
1F
100
AcDbEntity
  8
SK2
  6
Continuous
 62
     7
370
    25
100
AcDbLine
 10
-34.49188309203674
 20
-15.4
 30
0.0
 11
-33.24865551533946
 21
-14.15677242330273
 31
0.0
  0
LINE
  5
37E
330
1F
100
AcDbEntity
  8
SK2
  6
Continuous
 62
     7
370
    25
100
AcDbLine
 10
-34.91614716074866
 20
-15.4
 30
0.0
 11
-33.31936619345812
 21
-13.80321903270946
 31
0.0
  0
LINE
  5
37F
330
1F
100
AcDbEntity
  8
SK2
  6
Continuous
 62
     7
370
    25
100
AcDbLine
 10
-34.91490969263486
 20
-14.97449846317426
 30
0.0
 11
-33.39007687157677
 21
-13.44966564211617
 31
0.0
  0
LINE
  5
380
330
1F
100
AcDbEntity
  8
SK2
  6
Continuous
 62
     7
370
    25
100
AcDbLine
 10
-34.80884367545688
 20
-14.44416837728435
 30
0.0
 11
-33.46078754969542
 21
-13.0961122515229
 31
0.0
  0
LINE
  5
381
330
1F
100
AcDbEntity
  8
SK2
  6
Continuous
 62
     7
370
    25
100
AcDbLine
 10
-34.7027776582789
 20
-13.91383829139445
 30
0.0
 11
-33.53149822781408
 21
-12.74255886092963
 31
0.0
  0
LINE
  5
382
330
1F
100
AcDbEntity
  8
SK2
  6
Continuous
 62
     7
370
    25
100
AcDbLine
 10
-34.59671164110091
 20
-13.38350820550453
 30
0.0
 11
-33.60220890593273
 21
-12.38900547033635
 31
0.0
  0
LINE
  5
383
330
1F
100
AcDbEntity
  8
SK2
  6
Continuous
 62
     7
370
    25
100
AcDbLine
 10
-34.49064562392293
 20
-12.85317811961462
 30
0.0
 11
-33.67291958405139
 21
-12.03545207974308
 31
0.0
  0
LINE
  5
384
330
1F
100
AcDbEntity
  8
SK2
  6
Continuous
 62
     7
370
    25
100
AcDbLine
 10
-34.38457960674494
 20
-12.3228480337247
 30
0.0
 11
-33.74363026217004
 21
-11.68189868914981
 31
0.0
  0
LINE
  5
385
330
1F
100
AcDbEntity
  8
SK2
  6
Continuous
 62
     7
370
    25
100
AcDbLine
 10
-34.27851358956696
 20
-11.7925179478348
 30
0.0
 11
-33.8143409402887
 21
-11.32834529855654
 31
0.0
  0
LINE
  5
386
330
1F
100
AcDbEntity
  8
SK2
  6
Continuous
 62
     7
370
    25
100
AcDbLine
 10
-34.17244757238898
 20
-11.26218786194488
 30
0.0
 11
-33.88505161840735
 21
-10.97479190796327
 31
0.0
  0
LINE
  5
387
330
1F
100
AcDbEntity
  8
SK2
  6
Continuous
 62
     7
370
    25
100
AcDbLine
 10
-34.066381555211
 20
-10.73185777605498
 30
0.0
 11
-33.955762296526
 21
-10.62123851736999
 31
0.0
  0
LINE
  5
388
330
1F
100
AcDbEntity
  8
SK2
  6
Continuous
 62
     7
370
    25
100
AcDbLine
 10
-34.93215733485357
 20
-15.06073667426785
 30
0.0
 11
-34.59289400912142
 21
-15.4
 31
0.0
  0
LINE
  5
389
330
1F
100
AcDbEntity
  8
SK2
  6
Continuous
 62
     7
370
    25
100
AcDbLine
 10
-34.86144665673492
 20
-14.70718328367457
 30
0.0
 11
-34.16862994040949
 21
-15.4
 31
0.0
  0
LINE
  5
38A
330
1F
100
AcDbEntity
  8
SK2
  6
Continuous
 62
     7
370
    25
100
AcDbLine
 10
-34.79073597861626
 20
-14.3536298930813
 30
0.0
 11
-33.74436587169757
 21
-15.4
 31
0.0
  0
LINE
  5
38B
330
1F
100
AcDbEntity
  8
SK2
  6
Continuous
 62
     7
370
    25
100
AcDbLine
 10
-34.72002530049761
 20
-14.00007650248801
 30
0.0
 11
-33.32010180298563
 21
-15.4
 31
0.0
  0
LINE
  5
38C
330
1F
100
AcDbEntity
  8
SK2
  6
Continuous
 62
     7
370
    25
100
AcDbLine
 10
-34.64931462237896
 20
-13.64652311189474
 30
0.0
 11
-33.02605306643158
 21
-15.26978466784212
 31
0.0
  0
LINE
  5
38D
330
1F
100
AcDbEntity
  8
SK2
  6
Continuous
 62
     7
370
    25
100
AcDbLine
 10
-34.5786039442603
 20
-13.29296972130147
 30
0.0
 11
-33.13211908360956
 21
-14.73945458195222
 31
0.0
  0
LINE
  5
38E
330
1F
100
AcDbEntity
  8
SK2
  6
Continuous
 62
     7
370
    25
100
AcDbLine
 10
-34.50789326614164
 20
-12.93941633070821
 30
0.0
 11
-33.23818510078755
 21
-14.20912449606229
 31
0.0
  0
LINE
  5
38F
330
1F
100
AcDbEntity
  8
SK2
  6
Continuous
 62
     7
370
    25
100
AcDbLine
 10
-34.43718258802298
 20
-12.58586294011492
 30
0.0
 11
-33.34425111796553
 21
-13.67879441017238
 31
0.0
  0
LINE
  5
390
330
1F
100
AcDbEntity
  8
SK2
  6
Continuous
 62
     7
370
    25
100
AcDbLine
 10
-34.36647190990433
 20
-12.23230954952164
 30
0.0
 11
-33.45031713514351
 21
-13.14846432428247
 31
0.0
  0
LINE
  5
391
330
1F
100
AcDbEntity
  8
SK2
  6
Continuous
 62
     7
370
    25
100
AcDbLine
 10
-34.29576123178568
 20
-11.87875615892838
 30
0.0
 11
-33.55638315232149
 21
-12.61813423839256
 31
0.0
  0
LINE
  5
392
330
1F
100
AcDbEntity
  8
SK2
  6
Continuous
 62
     7
370
    25
100
AcDbLine
 10
-34.22505055366702
 20
-11.52520276833509
 30
0.0
 11
-33.66244916949948
 21
-12.08780415250263
 31
0.0
  0
LINE
  5
393
330
1F
100
AcDbEntity
  8
SK2
  6
Continuous
 62
     7
370
    25
100
AcDbLine
 10
-34.15433987554837
 20
-11.17164937774182
 30
0.0
 11
-33.76851518667745
 21
-11.55747406661273
 31
0.0
  0
LINE
  5
394
330
1F
100
AcDbEntity
  8
SK2
  6
Continuous
 62
     7
370
    25
100
AcDbLine
 10
-34.08362919742972
 20
-10.81809598714854
 30
0.0
 11
-33.87458120385544
 21
-11.02714398072281
 31
0.0
  0
LINE
  5
395
330
1F
100
AcDbEntity
  8
SK2
  6
Continuous
 62
     7
370
    25
100
AcDbLine
 10
-34.01291851931106
 20
-10.46454259655526
 30
0.0
 11
-33.98064722103342
 21
-10.4968138948329
 31
0.0
  0
LINE
  5
396
330
1F
100
AcDbEntity
  8
SK2
  6
Continuous
 62
     7
370
    25
100
AcDbLine
 10
-34.00001
 20
10.4
 30
0.0
 11
-35.00001
 21
15.4
 31
0.0
  0
LINE
  5
397
330
1F
100
AcDbEntity
  8
SK2
  6
Continuous
 62
     7
370
    25
100
AcDbLine
 10
-35.00001
 20
15.4
 30
0.0
 11
-33.00001
 21
15.4
 31
0.0
  0
LINE
  5
398
330
1F
100
AcDbEntity
  8
SK2
  6
Continuous
 62
     7
370
    25
100
AcDbLine
 10
-33.00001
 20
15.4
 30
0.0
 11
-34.00001
 21
10.4
 31
0.0
  0
LINE
  5
399
330
1F
100
AcDbEntity
  8
SK2
  6
Continuous
 62
     7
370
    25
100
AcDbLine
 10
-34.02462953579208
 20
10.5230976789604
 30
0.0
 11
-33.96308069631188
 21
10.58464651844059
 31
0.0
  0
LINE
  5
39A
330
1F
100
AcDbEntity
  8
SK2
  6
Continuous
 62
     7
370
    25
100
AcDbLine
 10
-34.09534021391074
 20
10.87665106955367
 30
0.0
 11
-33.8570146791339
 21
11.11497660433051
 31
0.0
  0
LINE
  5
39B
330
1F
100
AcDbEntity
  8
SK2
  6
Continuous
 62
     7
370
    25
100
AcDbLine
 10
-34.1660508920294
 20
11.23020446014694
 30
0.0
 11
-33.75094866195592
 21
11.64530669022042
 31
0.0
  0
LINE
  5
39C
330
1F
100
AcDbEntity
  8
SK2
  6
Continuous
 62
     7
370
    25
100
AcDbLine
 10
-34.23676157014805
 20
11.58375785074023
 30
0.0
 11
-33.64488264477794
 21
12.17563677611033
 31
0.0
  0
LINE
  5
39D
330
1F
100
AcDbEntity
  8
SK2
  6
Continuous
 62
     7
370
    25
100
AcDbLine
 10
-34.3074722482667
 20
11.9373112413335
 30
0.0
 11
-33.53881662759996
 21
12.70596686200022
 31
0.0
  0
LINE
  5
39E
330
1F
100
AcDbEntity
  8
SK2
  6
Continuous
 62
     7
370
    25
100
AcDbLine
 10
-34.37818292638536
 20
12.29086463192677
 30
0.0
 11
-33.43275061042198
 21
13.23629694789015
 31
0.0
  0
LINE
  5
39F
330
1F
100
AcDbEntity
  8
SK2
  6
Continuous
 62
     7
370
    25
100
AcDbLine
 10
-34.44889360450401
 20
12.64441802252004
 30
0.0
 11
-33.326684593244
 21
13.76662703378005
 31
0.0
  0
LINE
  5
3A0
330
1F
100
AcDbEntity
  8
SK2
  6
Continuous
 62
     7
370
    25
100
AcDbLine
 10
-34.51960428262267
 20
12.99797141311331
 30
0.0
 11
-33.22061857606602
 21
14.29695711966995
 31
0.0
  0
LINE
  5
3A1
330
1F
100
AcDbEntity
  8
SK2
  6
Continuous
 62
     7
370
    25
100
AcDbLine
 10
-34.59031496074132
 20
13.35152480370659
 30
0.0
 11
-33.11455255888804
 21
14.82728720555986
 31
0.0
  0
LINE
  5
3A2
330
1F
100
AcDbEntity
  8
SK2
  6
Continuous
 62
     7
370
    25
100
AcDbLine
 10
-34.66102563885998
 20
13.70507819429987
 30
0.0
 11
-33.00848654171005
 21
15.35761729144978
 31
0.0
  0
LINE
  5
3A3
330
1F
100
AcDbEntity
  8
SK2
  6
Continuous
 62
     7
370
    25
100
AcDbLine
 10
-34.73173631697863
 20
14.05863158489314
 30
0.0
 11
-33.39036790187176
 21
15.4
 31
0.0
  0
LINE
  5
3A4
330
1F
100
AcDbEntity
  8
SK2
  6
Continuous
 62
     7
370
    25
100
AcDbLine
 10
-34.80244699509728
 20
14.41218497548641
 30
0.0
 11
-33.81463197058369
 21
15.4
 31
0.0
  0
LINE
  5
3A5
330
1F
100
AcDbEntity
  8
SK2
  6
Continuous
 62
     7
370
    25
100
AcDbLine
 10
-34.87315767321594
 20
14.76573836607968
 30
0.0
 11
-34.23889603929562
 21
15.4
 31
0.0
  0
LINE
  5
3A6
330
1F
100
AcDbEntity
  8
SK2
  6
Continuous
 62
     7
370
    25
100
AcDbLine
 10
-34.94386835133459
 20
15.11929175667296
 30
0.0
 11
-34.66316010800755
 21
15.4
 31
0.0
  0
LINE
  5
3A7
330
1F
100
AcDbEntity
  8
SK2
  6
Continuous
 62
     7
370
    25
100
AcDbLine
 10
-34.04389398421871
 20
10.61941992109352
 30
0.0
 11
-33.97075401052087
 21
10.54627994739569
 31
0.0
  0
LINE
  5
3A8
330
1F
100
AcDbEntity
  8
SK2
  6
Continuous
 62
     7
370
    25
100
AcDbLine
 10
-34.14996000139669
 20
11.14975000698344
 30
0.0
 11
-33.90004333240221
 21
10.89983333798896
 31
0.0
  0
LINE
  5
3A9
330
1F
100
AcDbEntity
  8
SK2
  6
Continuous
 62
     7
370
    25
100
AcDbLine
 10
-34.25602601857467
 20
11.68008009287335
 30
0.0
 11
-33.82933265428355
 21
11.25338672858224
 31
0.0
  0
LINE
  5
3AA
330
1F
100
AcDbEntity
  8
SK2
  6
Continuous
 62
     7
370
    25
100
AcDbLine
 10
-34.36209203575265
 20
12.21041017876327
 30
0.0
 11
-33.7586219761649
 21
11.60694011917551
 31
0.0
  0
LINE
  5
3AB
330
1F
100
AcDbEntity
  8
SK2
  6
Continuous
 62
     7
370
    25
100
AcDbLine
 10
-34.46815805293063
 20
12.74074026465318
 30
0.0
 11
-33.68791129804625
 21
11.96049350976879
 31
0.0
  0
LINE
  5
3AC
330
1F
100
AcDbEntity
  8
SK2
  6
Continuous
 62
     7
370
    25
100
AcDbLine
 10
-34.57422407010862
 20
13.27107035054309
 30
0.0
 11
-33.61720061992759
 21
12.31404690036207
 31
0.0
  0
LINE
  5
3AD
330
1F
100
AcDbEntity
  8
SK2
  6
Continuous
 62
     7
370
    25
100
AcDbLine
 10
-34.6802900872866
 20
13.80140043643301
 30
0.0
 11
-33.54648994180894
 21
12.66760029095534
 31
0.0
  0
LINE
  5
3AE
330
1F
100
AcDbEntity
  8
SK2
  6
Continuous
 62
     7
370
    25
100
AcDbLine
 10
-34.78635610446459
 20
14.33173052232292
 30
0.0
 11
-33.47577926369028
 21
13.02115368154861
 31
0.0
  0
LINE
  5
3AF
330
1F
100
AcDbEntity
  8
SK2
  6
Continuous
 62
     7
370
    25
100
AcDbLine
 10
-34.89242212164257
 20
14.86206060821283
 30
0.0
 11
-33.40506858557163
 21
13.37470707214189
 31
0.0
  0
LINE
  5
3B0
330
1F
100
AcDbEntity
  8
SK2
  6
Continuous
 62
     7
370
    25
100
AcDbLine
 10
-34.99848813882055
 20
15.39239069410275
 30
0.0
 11
-33.33435790745298
 21
13.72826046273517
 31
0.0
  0
LINE
  5
3B1
330
1F
100
AcDbEntity
  8
SK2
  6
Continuous
 62
     7
370
    25
100
AcDbLine
 10
-34.58183337600587
 20
15.4
 30
0.0
 11
-33.26364722933432
 21
14.08181385332844
 31
0.0
  0
LINE
  5
3B2
330
1F
100
AcDbEntity
  8
SK2
  6
Continuous
 62
     7
370
    25
100
AcDbLine
 10
-34.15756930729395
 20
15.4
 30
0.0
 11
-33.19293655121567
 21
14.43536724392171
 31
0.0
  0
LINE
  5
3B3
330
1F
100
AcDbEntity
  8
SK2
  6
Continuous
 62
     7
370
    25
100
AcDbLine
 10
-33.73330523858202
 20
15.4
 30
0.0
 11
-33.12222587309701
 21
14.78892063451499
 31
0.0
  0
LINE
  5
3B4
330
1F
100
AcDbEntity
  8
SK2
  6
Continuous
 62
     7
370
    25
100
AcDbLine
 10
-33.30904116987009
 20
15.4
 30
0.0
 11
-33.05151519497836
 21
15.14247402510827
 31
0.0
  0
TEXT
  5
3B5
330
1F
100
AcDbEntity
  8
SK2
  6
Continuous
 62
     7
370
    25
100
AcDbText
 10
-35.50001
 20
-3.787
 30
0.0
 40
3.5
  1
20.8
 50
90.0
 72
     1
 11
-35.50001
 21
2.275
 31
0.0
100
AcDbText
  0
CIRCLE
  5
3B6
330
1F
100
AcDbEntity
  8
SK2
  6
Continuous
 62
     7
370
    25
100
AcDbCircle
 10
-37.25001
 20
-5.775
 30
0.0
 40
1.4
  0
LINE
  5
3B7
330
1F
100
AcDbEntity
  8
SK2
  6
Continuous
 62
     7
370
    25
100
AcDbLine
 10
-35.85001
 20
-7.174999999999999
 30
0.0
 11
-38.65001
 21
-4.374999999999998
 31
0.0
  0
LINE
  5
3B8
330
1F
100
AcDbEntity
  8
CUT
  6
Continuous
 62
     1
370
    25
100
AcDbLine
 10
35.5
 20
12.5
 30
0.0
 11
24.31095178310505
 21
12.5
 31
0.0
  0
ARC
  5
3B9
330
1F
100
AcDbEntity
  8
CUT
  6
Continuous
 62
     1
370
    25
100
AcDbCircle
 10
24.31095178327826
 20
11.9999999999
 30
0.0
 40
0.5
100
AcDbArc
 50
90.0000000198479
 51
209.9999999801521
  0
LINE
  5
3BA
330
1F
100
AcDbEntity
  8
CUT
  6
Continuous
 62
     1
370
    25
100
AcDbLine
 10
23.87793908121283
 20
11.75
 30
0.0
 11
29.47246318966031
 21
2.059999999999997
 31
0.0
  0
ARC
  5
3BB
330
1F
100
AcDbEntity
  8
CUT
  6
Continuous
 62
     1
370
    25
100
AcDbCircle
 10
29.90547589155253
 20
2.310000000199997
 30
0.0
 40
0.4999999999999989
100
AcDbArc
 50
210.0000000198477
 51
329.9999999801522
  0
LINE
  5
3BC
330
1F
100
AcDbEntity
  8
CUT
  6
Continuous
 62
     1
370
    25
100
AcDbLine
 10
30.33848859344475
 20
2.059999999999997
 30
0.0
 11
35.93301270189222
 21
11.75
 31
0.0
  0
ARC
  5
3BD
330
1F
100
AcDbEntity
  8
CUT
  6
Continuous
 62
     1
370
    25
100
AcDbCircle
 10
35.4999999998268
 20
11.9999999999
 30
0.0
 40
0.4999999999999961
100
AcDbArc
 50
330.0000000198477
 51
89.99999998015252
  0
LINE
  5
3BE
330
1F
100
AcDbEntity
  8
NOCUT
  6
Continuous
 62
     7
370
    25
100
AcDbLine
 10
16.0
 20
0.0
 30
0.0
 11
34.1
 21
0.0
 31
0.0
  0
LINE
  5
3BF
330
1F
100
AcDbEntity
  8
NOCUT
  6
Continuous
 62
     7
370
    25
100
AcDbLine
 10
34.1
 20
0.0
 30
0.0
 11
34.1
 21
11.125
 31
0.0
  0
LINE
  5
3C0
330
1F
100
AcDbEntity
  8
NOCUT
  6
Continuous
 62
     7
370
    25
100
AcDbLine
 10
34.1
 20
11.125
 30
0.0
 11
33.1
 21
12.125
 31
0.0
  0
LINE
  5
3C1
330
1F
100
AcDbEntity
  8
NOCUT
  6
Continuous
 62
     7
370
    25
100
AcDbLine
 10
33.1
 20
12.125
 30
0.0
 11
19.0
 21
12.125
 31
0.0
  0
LINE
  5
3C2
330
1F
100
AcDbEntity
  8
NOCUT
  6
Continuous
 62
     7
370
    25
100
AcDbLine
 10
19.0
 20
12.125
 30
0.0
 11
19.0
 21
10.5
 31
0.0
  0
LINE
  5
3C3
330
1F
100
AcDbEntity
  8
NOCUT
  6
Continuous
 62
     7
370
    25
100
AcDbLine
 10
19.0
 20
10.5
 30
0.0
 11
16.0
 21
10.4
 31
0.0
  0
LINE
  5
3C4
330
1F
100
AcDbEntity
  8
SK1
  6
Continuous
 62
     4
370
    50
100
AcDbLine
 10
0.0
 20
0.0
 30
0.0
 11
2.625
 21
0.0
 31
0.0
  0
LINE
  5
3C5
330
1F
100
AcDbEntity
  8
SK1
  6
Continuous
 62
     4
370
    50
100
AcDbLine
 10
0.0
 20
0.0
 30
0.0
 11
0.0
 21
2.625
 31
0.0
  0
ARC
  5
3C6
330
1F
100
AcDbEntity
  8
SK1
  6
Continuous
 62
     4
370
    50
100
AcDbCircle
 10
0.0
 20
0.0
 30
0.0
 40
2.625
100
AcDbArc
 50
0.0
 51
90.0
  0
LINE
  5
3C7
330
1F
100
AcDbEntity
  8
SK1
  6
Continuous
 62
     4
370
    50
100
AcDbLine
 10
0.0
 20
0.0
 30
0.0
 11
-2.625
 21
0.0
 31
0.0
  0
ARC
  5
3C8
330
1F
100
AcDbEntity
  8
SK1
  6
Continuous
 62
     4
370
    50
100
AcDbCircle
 10
0.0
 20
0.0
 30
0.0
 40
2.625
100
AcDbArc
 50
180.0
 51
270.0
  0
LINE
  5
3C9
330
1F
100
AcDbEntity
  8
SK1
  6
Continuous
 62
     4
370
    50
100
AcDbLine
 10
0.0
 20
-2.625
 30
0.0
 11
0.0
 21
0.0
 31
0.0
  0
ARC
  5
3CA
330
1F
100
AcDbEntity
  8
SK1
  6
Continuous
 62
     4
370
    50
100
AcDbCircle
 10
0.0
 20
0.0
 30
0.0
 40
2.625
100
AcDbArc
 50
270.0
 51
0.0
  0
ARC
  5
3CB
330
1F
100
AcDbEntity
  8
SK1
  6
Continuous
 62
     4
370
    50
100
AcDbCircle
 10
0.0
 20
0.0
 30
0.0
 40
2.625
100
AcDbArc
 50
90.0
 51
180.0
  0
LINE
  5
3CC
330
1F
100
AcDbEntity
  8
SK1
  6
Continuous
 62
     4
370
    50
100
AcDbLine
 10
-0.3342427780731856
 20
-2.60347067499975
 30
0.0
 11
0.0
 21
-2.269227896926564
 31
0.0
  0
LINE
  5
3CD
330
1F
100
AcDbEntity
  8
SK1
  6
Continuous
 62
     4
370
    50
100
AcDbLine
 10
2.269227896926564
 20
0.0
 30
0.0
 11
2.603470674999749
 21
0.3342427780731851
 31
0.0
  0
LINE
  5
3CE
330
1F
100
AcDbEntity
  8
SK1
  6
Continuous
 62
     4
370
    50
100
AcDbLine
 10
-0.6460460878531344
 20
-2.544042924656761
 30
0.0
 11
0.0
 21
-1.897996836803626
 31
0.0
  0
LINE
  5
3CF
330
1F
100
AcDbEntity
  8
SK1
  6
Continuous
 62
     4
370
    50
100
AcDbLine
 10
1.897996836803626
 20
0.0
 30
0.0
 11
2.544042924656761
 21
0.6460460878531347
 31
0.0
  0
LINE
  5
3D0
330
1F
100
AcDbEntity
  8
SK1
  6
Continuous
 62
     4
370
    50
100
AcDbLine
 10
-0.9277765110842455
 20
-2.454542287764935
 30
0.0
 11
0.0
 21
-1.526765776680689
 31
0.0
  0
LINE
  5
3D1
330
1F
100
AcDbEntity
  8
SK1
  6
Continuous
 62
     4
370
    50
100
AcDbLine
 10
1.526765776680689
 20
0.0
 30
0.0
 11
2.454542287764935
 21
0.9277765110842457
 31
0.0
  0
LINE
  5
3D2
330
1F
100
AcDbEntity
  8
SK1
  6
Continuous
 62
     4
370
    50
100
AcDbLine
 10
-1.18521879321747
 20
-2.340753509775221
 30
0.0
 11
0.0
 21
-1.155534716557751
 31
0.0
  0
LINE
  5
3D3
330
1F
100
AcDbEntity
  8
SK1
  6
Continuous
 62
     4
370
    50
100
AcDbLine
 10
1.155534716557751
 20
0.0
 30
0.0
 11
2.340753509775222
 21
1.185218793217471
 31
0.0
  0
LINE
  5
3D4
330
1F
100
AcDbEntity
  8
SK1
  6
Continuous
 62
     4
370
    50
100
AcDbLine
 10
-1.421734561544524
 20
-2.206038217979337
 30
0.0
 11
0.0
 21
-0.7843036564348136
 31
0.0
  0
LINE
  5
3D5
330
1F
100
AcDbEntity
  8
SK1
  6
Continuous
 62
     4
370
    50
100
AcDbLine
 10
0.7843036564348136
 20
0.0
 30
0.0
 11
2.206038217979337
 21
1.421734561544524
 31
0.0
  0
LINE
  5
3D6
330
1F
100
AcDbEntity
  8
SK1
  6
Continuous
 62
     4
370
    50
100
AcDbLine
 10
-1.637356888289102
 20
-2.050429484600978
 30
0.0
 11
0.0
 21
-0.413072596311876
 31
0.0
  0
LINE
  5
3D7
330
1F
100
AcDbEntity
  8
SK1
  6
Continuous
 62
     4
370
    50
100
AcDbLine
 10
0.413072596311876
 20
0.0
 30
0.0
 11
2.050429484600977
 21
1.637356888289101
 31
0.0
  0
LINE
  5
3D8
330
1F
100
AcDbEntity
  8
SK1
  6
Continuous
 62
     4
370
    50
100
AcDbLine
 10
-1.834318631927537
 20
-1.876160168116476
 30
0.0
 11
0.0
 21
-0.0418415361889384
 31
0.0
  0
LINE
  5
3D9
330
1F
100
AcDbEntity
  8
SK1
  6
Continuous
 62
     4
370
    50
100
AcDbLine
 10
0.0418415361889384
 20
0.0
 30
0.0
 11
1.876160168116476
 21
1.834318631927537
 31
0.0
  0
LINE
  5
3DA
330
1F
100
AcDbEntity
  8
SK1
  6
Continuous
 62
     4
370
    50
100
AcDbLine
 10
-2.013240575223679
 20
-1.683851051289679
 30
0.0
 11
-0.3293895239339992
 21
0.0
 31
0.0
  0
LINE
  5
3DB
330
1F
100
AcDbEntity
  8
SK1
  6
Continuous
 62
     4
370
    50
100
AcDbLine
 10
0.0
 20
0.3293895239339992
 30
0.0
 11
1.683851051289679
 21
2.013240575223679
 31
0.0
  0
LINE
  5
3DC
330
1F
100
AcDbEntity
  8
SK1
  6
Continuous
 62
     4
370
    50
100
AcDbLine
 10
-2.172178381694937
 20
-1.471557797638
 30
0.0
 11
-0.7006205840569368
 21
0.0
 31
0.0
  0
LINE
  5
3DD
330
1F
100
AcDbEntity
  8
SK1
  6
Continuous
 62
     4
370
    50
100
AcDbLine
 10
0.0
 20
0.7006205840569368
 30
0.0
 11
1.471557797638
 21
2.172178381694937
 31
0.0
  0
LINE
  5
3DE
330
1F
100
AcDbEntity
  8
SK1
  6
Continuous
 62
     4
370
    50
100
AcDbLine
 10
-2.312507112814711
 20
-1.240655468634837
 30
0.0
 11
-1.071851644179874
 21
0.0
 31
0.0
  0
LINE
  5
3DF
330
1F
100
AcDbEntity
  8
SK1
  6
Continuous
 62
     4
370
    50
100
AcDbLine
 10
0.0
 20
1.071851644179874
 30
0.0
 11
1.240655468634837
 21
2.312507112814711
 31
0.0
  0
LINE
  5
3E0
330
1F
100
AcDbEntity
  8
SK1
  6
Continuous
 62
     4
370
    50
100
AcDbLine
 10
-2.431223557116124
 20
-0.9881408528133115
 30
0.0
 11
-1.443082704302812
 21
0.0
 31
0.0
  0
LINE
  5
3E1
330
1F
100
AcDbEntity
  8
SK1
  6
Continuous
 62
     4
370
    50
100
AcDbLine
 10
0.0
 20
1.443082704302812
 30
0.0
 11
0.9881408528133117
 21
2.431223557116124
 31
0.0
  0
LINE
  5
3E2
330
1F
100
AcDbEntity
  8
SK1
  6
Continuous
 62
     4
370
    50
100
AcDbLine
 10
-2.525555179665438
 20
-0.7112414152396886
 30
0.0
 11
-1.81431376442575
 21
0.0
 31
0.0
  0
LINE
  5
3E3
330
1F
100
AcDbEntity
  8
SK1
  6
Continuous
 62
     4
370
    50
100
AcDbLine
 10
0.0
 20
1.81431376442575
 30
0.0
 11
0.7112414152396889
 21
2.525555179665439
 31
0.0
  0
LINE
  5
3E4
330
1F
100
AcDbEntity
  8
SK1
  6
Continuous
 62
     4
370
    50
100
AcDbLine
 10
-2.59202879428915
 20
-0.4064839697404632
 30
0.0
 11
-2.185544824548687
 21
0.0
 31
0.0
  0
LINE
  5
3E5
330
1F
100
AcDbEntity
  8
SK1
  6
Continuous
 62
     4
370
    50
100
AcDbLine
 10
0.0
 20
2.185544824548687
 30
0.0
 11
0.406483969740463
 21
2.59202879428915
 31
0.0
  0
LINE
  5
3E6
330
1F
100
AcDbEntity
  8
SK1
  6
Continuous
 62
     4
370
    50
100
AcDbLine
 10
-2.622921296684535
 20
-0.0661454120129097
 30
0.0
 11
-2.556775884671625
 21
0.0
 31
0.0
  0
LINE
  5
3E7
330
1F
100
AcDbEntity
  8
SK1
  6
Continuous
 62
     4
370
    50
100
AcDbLine
 10
0.0
 20
2.556775884671625
 30
0.0
 11
0.0661454120129104
 21
2.622921296684535
 31
0.0
  0
LINE
  5
3E8
330
1F
100
AcDbEntity
  8
SK1
  6
Continuous
 62
     4
370
    50
100
AcDbLine
 10
-2.454203473563767
 20
-0.9287176037316112
 30
0.0
 11
-0.9287176037316088
 21
-2.454203473563768
 31
0.0
  0
LINE
  5
3E9
330
1F
100
AcDbEntity
  8
SK1
  6
Continuous
 62
     4
370
    50
100
AcDbLine
 10
-2.589548954366934
 20
-0.4221410628055069
 30
0.0
 11
-0.4221410628055044
 21
-2.589548954366935
 31
0.0
  0
LINE
  5
3EA
330
1F
100
AcDbEntity
  8
SK1
  6
Continuous
 62
     4
370
    50
100
AcDbLine
 10
-2.624498419913778
 20
-0.0159605371357268
 30
0.0
 11
-0.0159605371357233
 21
-2.624498419913778
 31
0.0
  0
LINE
  5
3EB
330
1F
100
AcDbEntity
  8
SK1
  6
Continuous
 62
     4
370
    50
100
AcDbLine
 10
-2.269227896926567
 20
0.0
 30
0.0
 11
0.0
 21
-2.269227896926564
 31
0.0
  0
LINE
  5
3EC
330
1F
100
AcDbEntity
  8
SK1
  6
Continuous
 62
     4
370
    50
100
AcDbLine
 10
-1.897996836803628
 20
0.0
 30
0.0
 11
0.0
 21
-1.897996836803626
 31
0.0
  0
LINE
  5
3ED
330
1F
100
AcDbEntity
  8
SK1
  6
Continuous
 62
     4
370
    50
100
AcDbLine
 10
-1.526765776680691
 20
0.0
 30
0.0
 11
0.0
 21
-1.526765776680689
 31
0.0
  0
LINE
  5
3EE
330
1F
100
AcDbEntity
  8
SK1
  6
Continuous
 62
     4
370
    50
100
AcDbLine
 10
-1.155534716557753
 20
0.0
 30
0.0
 11
0.0
 21
-1.155534716557752
 31
0.0
  0
LINE
  5
3EF
330
1F
100
AcDbEntity
  8
SK1
  6
Continuous
 62
     4
370
    50
100
AcDbLine
 10
-0.7843036564348154
 20
0.0
 30
0.0
 11
0.0
 21
-0.7843036564348145
 31
0.0
  0
LINE
  5
3F0
330
1F
100
AcDbEntity
  8
SK1
  6
Continuous
 62
     4
370
    50
100
AcDbLine
 10
-0.4130725963118773
 20
0.0
 30
0.0
 11
0.0
 21
-0.4130725963118769
 31
0.0
  0
LINE
  5
3F1
330
1F
100
AcDbEntity
  8
SK1
  6
Continuous
 62
     4
370
    50
100
AcDbLine
 10
-0.0418415361889393
 20
0.0
 30
0.0
 11
0.0
 21
-0.0418415361889393
 31
0.0
  0
LINE
  5
3F2
330
1F
100
AcDbEntity
  8
SK1
  6
Continuous
 62
     4
370
    50
100
AcDbLine
 10
0.0
 20
0.3293895239339975
 30
0.0
 11
0.3293895239339978
 21
0.0
 31
0.0
  0
LINE
  5
3F3
330
1F
100
AcDbEntity
  8
SK1
  6
Continuous
 62
     4
370
    50
100
AcDbLine
 10
0.0
 20
0.7006205840569351
 30
0.0
 11
0.7006205840569358
 21
0.0
 31
0.0
  0
LINE
  5
3F4
330
1F
100
AcDbEntity
  8
SK1
  6
Continuous
 62
     4
370
    50
100
AcDbLine
 10
0.0
 20
1.071851644179873
 30
0.0
 11
1.071851644179874
 21
0.0
 31
0.0
  0
LINE
  5
3F5
330
1F
100
AcDbEntity
  8
SK1
  6
Continuous
 62
     4
370
    50
100
AcDbLine
 10
0.0
 20
1.44308270430281
 30
0.0
 11
1.443082704302812
 21
0.0
 31
0.0
  0
LINE
  5
3F6
330
1F
100
AcDbEntity
  8
SK1
  6
Continuous
 62
     4
370
    50
100
AcDbLine
 10
0.0
 20
1.814313764425748
 30
0.0
 11
1.81431376442575
 21
0.0
 31
0.0
  0
LINE
  5
3F7
330
1F
100
AcDbEntity
  8
SK1
  6
Continuous
 62
     4
370
    50
100
AcDbLine
 10
0.0
 20
2.185544824548685
 30
0.0
 11
2.185544824548687
 21
0.0
 31
0.0
  0
LINE
  5
3F8
330
1F
100
AcDbEntity
  8
SK1
  6
Continuous
 62
     4
370
    50
100
AcDbLine
 10
0.0
 20
2.556775884671622
 30
0.0
 11
2.556775884671625
 21
0.0
 31
0.0
  0
LINE
  5
3F9
330
1F
100
AcDbEntity
  8
SK1
  6
Continuous
 62
     4
370
    50
100
AcDbLine
 10
0.3231531925751008
 20
2.604853752219459
 30
0.0
 11
2.604853752219459
 21
0.3231531925751043
 31
0.0
  0
LINE
  5
3FA
330
1F
100
AcDbEntity
  8
SK1
  6
Continuous
 62
     4
370
    50
100
AcDbLine
 10
0.79925237182748
 20
2.499985633090018
 30
0.0
 11
2.499985633090018
 21
0.7992523718274818
 31
0.0
  0
LINE
  5
3FB
330
1F
100
AcDbEntity
  8
SK1
  6
Continuous
 62
     4
370
    50
100
AcDbLine
 10
1.560157930981756
 20
2.11031113405868
 30
0.0
 11
2.110311134058677
 21
1.560157930981759
 31
0.0
  0
LINE
  5
3FC
330
1F
100
AcDbEntity
  8
2
  6
Continuous
 62
     7
370
    25
100
AcDbLine
 10
36.0
 20
-12.5
 30
0.0
 11
49.0
 21
-12.5
 31
0.0
  0
LINE
  5
3FD
330
1F
100
AcDbEntity
  8
2
  6
Continuous
 62
     7
370
    25
100
AcDbLine
 10
49.0
 20
12.5
 30
0.0
 11
36.0
 21
12.5
 31
0.0
  0
LINE
  5
3FE
330
1F
100
AcDbEntity
  8
2
  6
Continuous
 62
     7
370
    25
100
AcDbLine
 10
48.0
 20
-12.5
 30
0.0
 11
48.0
 21
12.5
 31
0.0
  0
LINE
  5
3FF
330
1F
100
AcDbEntity
  8
2
  6
Continuous
 62
     7
370
    25
100
AcDbLine
 10
48.0
 20
-12.5
 30
0.0
 11
47.0
 21
-7.5
 31
0.0
  0
LINE
  5
400
330
1F
100
AcDbEntity
  8
2
  6
Continuous
 62
     7
370
    25
100
AcDbLine
 10
47.0
 20
-7.5
 30
0.0
 11
49.0
 21
-7.5
 31
0.0
  0
LINE
  5
401
330
1F
100
AcDbEntity
  8
2
  6
Continuous
 62
     7
370
    25
100
AcDbLine
 10
49.0
 20
-7.5
 30
0.0
 11
48.0
 21
-12.5
 31
0.0
  0
LINE
  5
402
330
1F
100
AcDbEntity
  8
2
  6
Continuous
 62
     7
370
    25
100
AcDbLine
 10
47.96891334753124
 20
-12.34456673765619
 30
0.0
 11
48.04662997870314
 21
-12.26685010648428
 31
0.0
  0
LINE
  5
403
330
1F
100
AcDbEntity
  8
2
  6
Continuous
 62
     7
370
    25
100
AcDbLine
 10
47.89820266941259
 20
-11.99101334706291
 30
0.0
 11
48.15269599588112
 21
-11.73652002059438
 31
0.0
  0
LINE
  5
404
330
1F
100
AcDbEntity
  8
2
  6
Continuous
 62
     7
370
    25
100
AcDbLine
 10
47.82749199129393
 20
-11.63745995646964
 30
0.0
 11
48.25876201305911
 21
-11.20618993470445
 31
0.0
  0
LINE
  5
405
330
1F
100
AcDbEntity
  8
2
  6
Continuous
 62
     7
370
    25
100
AcDbLine
 10
47.75678131317527
 20
-11.28390656587636
 30
0.0
 11
48.36482803023709
 21
-10.67585984881454
 31
0.0
  0
LINE
  5
406
330
1F
100
AcDbEntity
  8
2
  6
Continuous
 62
     7
370
    25
100
AcDbLine
 10
47.68607063505662
 20
-10.93035317528309
 30
0.0
 11
48.47089404741507
 21
-10.14552976292463
 31
0.0
  0
LINE
  5
407
330
1F
100
AcDbEntity
  8
2
  6
Continuous
 62
     7
370
    25
100
AcDbLine
 10
47.61535995693797
 20
-10.57679978468981
 30
0.0
 11
48.57696006459305
 21
-9.615199677034724
 31
0.0
  0
LINE
  5
408
330
1F
100
AcDbEntity
  8
2
  6
Continuous
 62
     7
370
    25
100
AcDbLine
 10
47.54464927881931
 20
-10.22324639409653
 30
0.0
 11
48.68302608177104
 21
-9.084869591144802
 31
0.0
  0
LINE
  5
409
330
1F
100
AcDbEntity
  8
2
  6
Continuous
 62
     7
370
    25
100
AcDbLine
 10
47.47393860070065
 20
-9.869693003503258
 30
0.0
 11
48.78909209894903
 21
-8.55453950525488
 31
0.0
  0
LINE
  5
40A
330
1F
100
AcDbEntity
  8
2
  6
Continuous
 62
     7
370
    25
100
AcDbLine
 10
47.403227922582
 20
-9.516139612909981
 30
0.0
 11
48.89515811612701
 21
-8.024209419364972
 31
0.0
  0
LINE
  5
40B
330
1F
100
AcDbEntity
  8
2
  6
Continuous
 62
     7
370
    25
100
AcDbLine
 10
47.33251724446334
 20
-9.162586222316712
 30
0.0
 11
48.99510346678005
 21
-7.5
 31
0.0
  0
LINE
  5
40C
330
1F
100
AcDbEntity
  8
2
  6
Continuous
 62
     7
370
    25
100
AcDbLine
 10
47.26180656634469
 20
-8.809032831723428
 30
0.0
 11
48.57083939806812
 21
-7.5
 31
0.0
  0
LINE
  5
40D
330
1F
100
AcDbEntity
  8
2
  6
Continuous
 62
     7
370
    25
100
AcDbLine
 10
47.19109588822604
 20
-8.455479441130144
 30
0.0
 11
48.14657532935618
 21
-7.5
 31
0.0
  0
LINE
  5
40E
330
1F
100
AcDbEntity
  8
2
  6
Continuous
 62
     7
370
    25
100
AcDbLine
 10
47.12038521010737
 20
-8.101926050536882
 30
0.0
 11
47.72231126064425
 21
-7.5
 31
0.0
  0
LINE
  5
40F
330
1F
100
AcDbEntity
  8
2
  6
Continuous
 62
     7
370
    25
100
AcDbLine
 10
47.04967453198872
 20
-7.748372659943605
 30
0.0
 11
47.29804719193233
 21
-7.5
 31
0.0
  0
LINE
  5
410
330
1F
100
AcDbEntity
  8
2
  6
Continuous
 62
     7
370
    25
100
AcDbLine
 10
47.96545455704951
 20
-12.32727278524757
 30
0.0
 11
48.02303029530032
 21
-12.38484852349838
 31
0.0
  0
LINE
  5
411
330
1F
100
AcDbEntity
  8
2
  6
Continuous
 62
     7
370
    25
100
AcDbLine
 10
47.85938853987153
 20
-11.79694269935766
 30
0.0
 11
48.09374097341898
 21
-12.03129513290511
 31
0.0
  0
LINE
  5
412
330
1F
100
AcDbEntity
  8
2
  6
Continuous
 62
     7
370
    25
100
AcDbLine
 10
47.75332252269355
 20
-11.26661261346775
 30
0.0
 11
48.16445165153763
 21
-11.67774174231184
 31
0.0
  0
LINE
  5
413
330
1F
100
AcDbEntity
  8
2
  6
Continuous
 62
     7
370
    25
100
AcDbLine
 10
47.64725650551557
 20
-10.73628252757784
 30
0.0
 11
48.2351623296563
 21
-11.32418835171857
 31
0.0
  0
LINE
  5
414
330
1F
100
AcDbEntity
  8
2
  6
Continuous
 62
     7
370
    25
100
AcDbLine
 10
47.54119048833758
 20
-10.20595244168792
 30
0.0
 11
48.30587300777495
 21
-10.97063496112528
 31
0.0
  0
LINE
  5
415
330
1F
100
AcDbEntity
  8
2
  6
Continuous
 62
     7
370
    25
100
AcDbLine
 10
47.4351244711596
 20
-9.675622355798005
 30
0.0
 11
48.3765836858936
 21
-10.617081570532
 31
0.0
  0
LINE
  5
416
330
1F
100
AcDbEntity
  8
2
  6
Continuous
 62
     7
370
    25
100
AcDbLine
 10
47.32905845398162
 20
-9.14529226990809
 30
0.0
 11
48.44729436401225
 21
-10.26352817993873
 31
0.0
  0
LINE
  5
417
330
1F
100
AcDbEntity
  8
2
  6
Continuous
 62
     7
370
    25
100
AcDbLine
 10
47.22299243680364
 20
-8.614962184018175
 30
0.0
 11
48.51800504213091
 21
-9.909974789345455
 31
0.0
  0
LINE
  5
418
330
1F
100
AcDbEntity
  8
2
  6
Continuous
 62
     7
370
    25
100
AcDbLine
 10
47.11692641962565
 20
-8.08463209812826
 30
0.0
 11
48.58871572024957
 21
-9.556421398752185
 31
0.0
  0
LINE
  5
419
330
1F
100
AcDbEntity
  8
2
  6
Continuous
 62
     7
370
    25
100
AcDbLine
 10
47.01086040244767
 20
-7.554302012238345
 30
0.0
 11
48.65942639836822
 21
-9.202868008158902
 31
0.0
  0
LINE
  5
41A
330
1F
100
AcDbEntity
  8
2
  6
Continuous
 62
     7
370
    25
100
AcDbLine
 10
47.38082245892126
 20
-7.5
 30
0.0
 11
48.73013707648688
 21
-8.849314617565625
 31
0.0
  0
LINE
  5
41B
330
1F
100
AcDbEntity
  8
2
  6
Continuous
 62
     7
370
    25
100
AcDbLine
 10
47.80508652763319
 20
-7.5
 30
0.0
 11
48.80084775460553
 21
-8.495761226972355
 31
0.0
  0
LINE
  5
41C
330
1F
100
AcDbEntity
  8
2
  6
Continuous
 62
     7
370
    25
100
AcDbLine
 10
48.22935059634511
 20
-7.5
 30
0.0
 11
48.87155843272419
 21
-8.142207836379072
 31
0.0
  0
LINE
  5
41D
330
1F
100
AcDbEntity
  8
2
  6
Continuous
 62
     7
370
    25
100
AcDbLine
 10
48.65361466505705
 20
-7.5
 30
0.0
 11
48.94226911084284
 21
-7.788654445785795
 31
0.0
  0
LINE
  5
41E
330
1F
100
AcDbEntity
  8
2
  6
Continuous
 62
     7
370
    25
100
AcDbLine
 10
48.0
 20
12.5
 30
0.0
 11
49.0
 21
7.5
 31
0.0
  0
LINE
  5
41F
330
1F
100
AcDbEntity
  8
2
  6
Continuous
 62
     7
370
    25
100
AcDbLine
 10
49.0
 20
7.5
 30
0.0
 11
47.0
 21
7.5
 31
0.0
  0
LINE
  5
420
330
1F
100
AcDbEntity
  8
2
  6
Continuous
 62
     7
370
    25
100
AcDbLine
 10
47.0
 20
7.5
 30
0.0
 11
48.0
 21
12.5
 31
0.0
  0
LINE
  5
421
330
1F
100
AcDbEntity
  8
2
  6
Continuous
 62
     7
370
    25
100
AcDbLine
 10
48.60241945207193
 20
7.5
 30
0.0
 11
48.93373657534531
 21
7.831317123273379
 31
0.0
  0
LINE
  5
422
330
1F
100
AcDbEntity
  8
2
  6
Continuous
 62
     7
370
    25
100
AcDbLine
 10
48.17815538336
 20
7.5
 30
0.0
 11
48.86302589722666
 21
8.184870513866663
 31
0.0
  0
LINE
  5
423
330
1F
100
AcDbEntity
  8
2
  6
Continuous
 62
     7
370
    25
100
AcDbLine
 10
47.75389131464807
 20
7.5
 30
0.0
 11
48.79231521910801
 21
8.53842390445994
 31
0.0
  0
LINE
  5
424
330
1F
100
AcDbEntity
  8
2
  6
Continuous
 62
     7
370
    25
100
AcDbLine
 10
47.32962724593613
 20
7.5
 30
0.0
 11
48.72160454098935
 21
8.891977295053216
 31
0.0
  0
LINE
  5
425
330
1F
100
AcDbEntity
  8
2
  6
Continuous
 62
     7
370
    25
100
AcDbLine
 10
47.02365920569395
 20
7.61829602846975
 30
0.0
 11
48.6508938628707
 21
9.245530685646493
 31
0.0
  0
LINE
  5
426
330
1F
100
AcDbEntity
  8
2
  6
Continuous
 62
     7
370
    25
100
AcDbLine
 10
47.12972522287193
 20
8.148626114359665
 30
0.0
 11
48.58018318475204
 21
9.599084076239762
 31
0.0
  0
LINE
  5
427
330
1F
100
AcDbEntity
  8
2
  6
Continuous
 62
     7
370
    25
100
AcDbLine
 10
47.23579124004992
 20
8.67895620024958
 30
0.0
 11
48.50947250663339
 21
9.952637466833039
 31
0.0
  0
LINE
  5
428
330
1F
100
AcDbEntity
  8
2
  6
Continuous
 62
     7
370
    25
100
AcDbLine
 10
47.3418572572279
 20
9.209286286139495
 30
0.0
 11
48.43876182851474
 21
10.30619085742632
 31
0.0
  0
LINE
  5
429
330
1F
100
AcDbEntity
  8
2
  6
Continuous
 62
     7
370
    25
100
AcDbLine
 10
47.44792327440588
 20
9.739616372029403
 30
0.0
 11
48.36805115039608
 21
10.65974424801959
 31
0.0
  0
LINE
  5
42A
330
1F
100
AcDbEntity
  8
2
  6
Continuous
 62
     7
370
    25
100
AcDbLine
 10
47.55398929158387
 20
10.26994645791932
 30
0.0
 11
48.29734047227743
 21
11.01329763861288
 31
0.0
  0
LINE
  5
42B
330
1F
100
AcDbEntity
  8
2
  6
Continuous
 62
     7
370
    25
100
AcDbLine
 10
47.66005530876185
 20
10.80027654380923
 30
0.0
 11
48.22662979415876
 21
11.36685102920614
 31
0.0
  0
LINE
  5
42C
330
1F
100
AcDbEntity
  8
2
  6
Continuous
 62
     7
370
    25
100
AcDbLine
 10
47.76612132593984
 20
11.33060662969915
 30
0.0
 11
48.15591911604011
 21
11.72040441979942
 31
0.0
  0
LINE
  5
42D
330
1F
100
AcDbEntity
  8
2
  6
Continuous
 62
     7
370
    25
100
AcDbLine
 10
47.87218734311782
 20
11.86093671558906
 30
0.0
 11
48.08520843792146
 21
12.0739578103927
 31
0.0
  0
LINE
  5
42E
330
1F
100
AcDbEntity
  8
2
  6
Continuous
 62
     7
370
    25
100
AcDbLine
 10
47.9782533602958
 20
12.39126680147898
 30
0.0
 11
48.0144977598028
 21
12.42751120098598
 31
0.0
  0
LINE
  5
42F
330
1F
100
AcDbEntity
  8
2
  6
Continuous
 62
     7
370
    25
100
AcDbLine
 10
47.03834414397313
 20
7.691720719865629
 30
0.0
 11
47.23006486383876
 21
7.5
 31
0.0
  0
LINE
  5
430
330
1F
100
AcDbEntity
  8
2
  6
Continuous
 62
     7
370
    25
100
AcDbLine
 10
47.10905482209178
 20
8.045274110458912
 30
0.0
 11
47.65432893255069
 21
7.5
 31
0.0
  0
LINE
  5
431
330
1F
100
AcDbEntity
  8
2
  6
Continuous
 62
     7
370
    25
100
AcDbLine
 10
47.17976550021044
 20
8.398827501052182
 30
0.0
 11
48.07859300126262
 21
7.5
 31
0.0
  0
LINE
  5
432
330
1F
100
AcDbEntity
  8
2
  6
Continuous
 62
     7
370
    25
100
AcDbLine
 10
47.25047617832909
 20
8.752380891645466
 30
0.0
 11
48.50285706997456
 21
7.5
 31
0.0
  0
LINE
  5
433
330
1F
100
AcDbEntity
  8
2
  6
Continuous
 62
     7
370
    25
100
AcDbLine
 10
47.32118685644774
 20
9.105934282238742
 30
0.0
 11
48.92712113868649
 21
7.5
 31
0.0
  0
LINE
  5
434
330
1F
100
AcDbEntity
  8
2
  6
Continuous
 62
     7
370
    25
100
AcDbLine
 10
47.3918975345664
 20
9.459487672832012
 30
0.0
 11
48.91215369815039
 21
7.939231509248032
 31
0.0
  0
LINE
  5
435
330
1F
100
AcDbEntity
  8
2
  6
Continuous
 62
     7
370
    25
100
AcDbLine
 10
47.46260821268505
 20
9.813041063425288
 30
0.0
 11
48.80608768097241
 21
8.46956159513794
 31
0.0
  0
LINE
  5
436
330
1F
100
AcDbEntity
  8
2
  6
Continuous
 62
     7
370
    25
100
AcDbLine
 10
47.53331889080372
 20
10.16659445401856
 30
0.0
 11
48.70002166379442
 21
8.999891681027862
 31
0.0
  0
LINE
  5
437
330
1F
100
AcDbEntity
  8
2
  6
Continuous
 62
     7
370
    25
100
AcDbLine
 10
47.60402956892237
 20
10.52014784461183
 30
0.0
 11
48.59395564661644
 21
9.53022176691777
 31
0.0
  0
LINE
  5
438
330
1F
100
AcDbEntity
  8
2
  6
Continuous
 62
     7
370
    25
100
AcDbLine
 10
47.67474024704102
 20
10.87370123520511
 30
0.0
 11
48.48788962943846
 21
10.06055185280768
 31
0.0
  0
LINE
  5
439
330
1F
100
AcDbEntity
  8
2
  6
Continuous
 62
     7
370
    25
100
AcDbLine
 10
47.74545092515968
 20
11.22725462579839
 30
0.0
 11
48.38182361226048
 21
10.59088193869759
 31
0.0
  0
LINE
  5
43A
330
1F
100
AcDbEntity
  8
2
  6
Continuous
 62
     7
370
    25
100
AcDbLine
 10
47.81616160327833
 20
11.58080801639167
 30
0.0
 11
48.2757575950825
 21
11.1212120245875
 31
0.0
  0
LINE
  5
43B
330
1F
100
AcDbEntity
  8
2
  6
Continuous
 62
     7
370
    25
100
AcDbLine
 10
47.88687228139698
 20
11.93436140698496
 30
0.0
 11
48.16969157790452
 21
11.65154211047742
 31
0.0
  0
LINE
  5
43C
330
1F
100
AcDbEntity
  8
2
  6
Continuous
 62
     7
370
    25
100
AcDbLine
 10
47.95758295951564
 20
12.28791479757822
 30
0.0
 11
48.06362556072654
 21
12.18187219636733
 31
0.0
  0
TEXT
  5
43D
330
1F
100
AcDbEntity
  8
2
  6
Continuous
 62
     7
370
    25
100
AcDbText
 10
46.5
 20
-0.7560000000000002
 30
0.0
 40
3.5
  1
25
 50
90.0
 72
     1
 11
46.5
 21
2.275
 31
0.0
100
AcDbText
  0
CIRCLE
  5
43E
330
1F
100
AcDbEntity
  8
2
  6
Continuous
 62
     7
370
    25
100
AcDbCircle
 10
44.75
 20
-2.625
 30
0.0
 40
1.4
  0
LINE
  5
43F
330
1F
100
AcDbEntity
  8
2
  6
Continuous
 62
     7
370
    25
100
AcDbLine
 10
46.15
 20
-4.024999999999999
 30
0.0
 11
43.35
 21
-1.224999999999999
 31
0.0
  0
LINE
  5
440
330
1F
100
AcDbEntity
  8
2
  6
Continuous
 62
     7
370
    25
100
AcDbLine
 10
-0.0000000000000001
 20
20.40850345
 30
0.0
 11
0.0000000000000014
 21
45.5
 31
0.0
  0
LINE
  5
441
330
1F
100
AcDbEntity
  8
2
  6
Continuous
 62
     7
370
    25
100
AcDbLine
 10
36.0
 20
45.5
 30
0.0
 11
36.0
 21
22.50850345
 31
0.0
  0
LINE
  5
442
330
1F
100
AcDbEntity
  8
2
  6
Continuous
 62
     7
370
    25
100
AcDbLine
 10
0.0
 20
44.5
 30
0.0
 11
36.0
 21
44.5
 31
0.0
  0
LINE
  5
443
330
1F
100
AcDbEntity
  8
2
  6
Continuous
 62
     7
370
    25
100
AcDbLine
 10
0.0
 20
44.5
 30
0.0
 11
5.0
 21
45.5
 31
0.0
  0
LINE
  5
444
330
1F
100
AcDbEntity
  8
2
  6
Continuous
 62
     7
370
    25
100
AcDbLine
 10
5.0
 20
45.5
 30
0.0
 11
5.0
 21
43.5
 31
0.0
  0
LINE
  5
445
330
1F
100
AcDbEntity
  8
2
  6
Continuous
 62
     7
370
    25
100
AcDbLine
 10
5.0
 20
43.5
 30
0.0
 11
0.0
 21
44.5
 31
0.0
  0
LINE
  5
446
330
1F
100
AcDbEntity
  8
2
  6
Continuous
 62
     7
370
    25
100
AcDbLine
 10
4.909974789345463
 20
43.51800504213091
 30
0.0
 11
5.0
 21
43.60803025278545
 31
0.0
  0
LINE
  5
447
330
1F
100
AcDbEntity
  8
2
  6
Continuous
 62
     7
370
    25
100
AcDbLine
 10
4.55642139875219
 20
43.58871572024956
 30
0.0
 11
5.0
 21
44.03229432149737
 31
0.0
  0
LINE
  5
448
330
1F
100
AcDbEntity
  8
2
  6
Continuous
 62
     7
370
    25
100
AcDbLine
 10
4.20286800815891
 20
43.65942639836822
 30
0.0
 11
5.0
 21
44.45655839020931
 31
0.0
  0
LINE
  5
449
330
1F
100
AcDbEntity
  8
2
  6
Continuous
 62
     7
370
    25
100
AcDbLine
 10
3.849314617565637
 20
43.73013707648687
 30
0.0
 11
5.0
 21
44.88082245892124
 31
0.0
  0
LINE
  5
44A
330
1F
100
AcDbEntity
  8
2
  6
Continuous
 62
     7
370
    25
100
AcDbLine
 10
3.495761226972359
 20
43.80084775460553
 30
0.0
 11
5.0
 21
45.30508652763316
 31
0.0
  0
LINE
  5
44B
330
1F
100
AcDbEntity
  8
2
  6
Continuous
 62
     7
370
    25
100
AcDbLine
 10
3.142207836379086
 20
43.87155843272419
 30
0.0
 11
4.713311754568631
 21
45.44266235091373
 31
0.0
  0
LINE
  5
44C
330
1F
100
AcDbEntity
  8
2
  6
Continuous
 62
     7
370
    25
100
AcDbLine
 10
2.788654445785806
 20
43.94226911084284
 30
0.0
 11
4.182981668678711
 21
45.33659633373574
 31
0.0
  0
LINE
  5
44D
330
1F
100
AcDbEntity
  8
2
  6
Continuous
 62
     7
370
    25
100
AcDbLine
 10
2.435101055192533
 20
44.01297978896149
 30
0.0
 11
3.652651582788801
 21
45.23053031655776
 31
0.0
  0
LINE
  5
44E
330
1F
100
AcDbEntity
  8
2
  6
Continuous
 62
     7
370
    25
100
AcDbLine
 10
2.081547664599254
 20
44.08369046708015
 30
0.0
 11
3.122321496898882
 21
45.12446429937977
 31
0.0
  0
LINE
  5
44F
330
1F
100
AcDbEntity
  8
2
  6
Continuous
 62
     7
370
    25
100
AcDbLine
 10
1.727994274005981
 20
44.1544011451988
 30
0.0
 11
2.591991411008973
 21
45.01839828220179
 31
0.0
  0
LINE
  5
450
330
1F
100
AcDbEntity
  8
2
  6
Continuous
 62
     7
370
    25
100
AcDbLine
 10
1.374440883412702
 20
44.22511182331746
 30
0.0
 11
2.061661325119053
 21
44.91233226502381
 31
0.0
  0
LINE
  5
451
330
1F
100
AcDbEntity
  8
2
  6
Continuous
 62
     7
370
    25
100
AcDbLine
 10
1.020887492819428
 20
44.29582250143611
 30
0.0
 11
1.531331239229143
 21
44.80626624784583
 31
0.0
  0
LINE
  5
452
330
1F
100
AcDbEntity
  8
2
  6
Continuous
 62
     7
370
    25
100
AcDbLine
 10
0.6673341022261491
 20
44.36653317955477
 30
0.0
 11
1.001001153339224
 21
44.70020023066785
 31
0.0
  0
LINE
  5
453
330
1F
100
AcDbEntity
  8
2
  6
Continuous
 62
     7
370
    25
100
AcDbLine
 10
0.3137807116328757
 20
44.43724385767342
 30
0.0
 11
0.4706710674493137
 21
44.59413421348987
 31
0.0
  0
LINE
  5
454
330
1F
100
AcDbEntity
  8
2
  6
Continuous
 62
     7
370
    25
100
AcDbLine
 10
0.0397726789603799
 20
44.50795453579207
 30
0.0
 11
0.0596590184405699
 21
44.48806819631189
 31
0.0
  0
LINE
  5
455
330
1F
100
AcDbEntity
  8
2
  6
Continuous
 62
     7
370
    25
100
AcDbLine
 10
0.3933260695536531
 20
44.57866521391073
 30
0.0
 11
0.5899891043304799
 21
44.38200217913391
 31
0.0
  0
LINE
  5
456
330
1F
100
AcDbEntity
  8
2
  6
Continuous
 62
     7
370
    25
100
AcDbLine
 10
0.7468794601469263
 20
44.64937589202938
 30
0.0
 11
1.12031919022039
 21
44.27593616195592
 31
0.0
  0
LINE
  5
457
330
1F
100
AcDbEntity
  8
2
  6
Continuous
 62
     7
370
    25
100
AcDbLine
 10
1.100432850740205
 20
44.72008657014804
 30
0.0
 11
1.650649276110309
 21
44.16987014477794
 31
0.0
  0
LINE
  5
458
330
1F
100
AcDbEntity
  8
2
  6
Continuous
 62
     7
370
    25
100
AcDbLine
 10
1.453986241333484
 20
44.7907972482667
 30
0.0
 11
2.180979362000227
 21
44.06380412759995
 31
0.0
  0
LINE
  5
459
330
1F
100
AcDbEntity
  8
2
  6
Continuous
 62
     7
370
    25
100
AcDbLine
 10
1.807539631926757
 20
44.86150792638535
 30
0.0
 11
2.711309447890137
 21
43.95773811042197
 31
0.0
  0
LINE
  5
45A
330
1F
100
AcDbEntity
  8
2
  6
Continuous
 62
     7
370
    25
100
AcDbLine
 10
2.161093022520037
 20
44.93221860450401
 30
0.0
 11
3.241639533780056
 21
43.85167209324399
 31
0.0
  0
LINE
  5
45B
330
1F
100
AcDbEntity
  8
2
  6
Continuous
 62
     7
370
    25
100
AcDbLine
 10
2.51464641311331
 20
45.00292928262266
 30
0.0
 11
3.771969619669965
 21
43.745606076066
 31
0.0
  0
LINE
  5
45C
330
1F
100
AcDbEntity
  8
2
  6
Continuous
 62
     7
370
    25
100
AcDbLine
 10
2.868199803706589
 20
45.07363996074132
 30
0.0
 11
4.302299705559884
 21
43.63954005888802
 31
0.0
  0
LINE
  5
45D
330
1F
100
AcDbEntity
  8
2
  6
Continuous
 62
     7
370
    25
100
AcDbLine
 10
3.221753194299862
 20
45.14435063885998
 30
0.0
 11
4.832629791449794
 21
43.53347404171004
 31
0.0
  0
LINE
  5
45E
330
1F
100
AcDbEntity
  8
2
  6
Continuous
 62
     7
370
    25
100
AcDbLine
 10
3.575306584893141
 20
45.21506131697863
 30
0.0
 11
5.0
 21
43.79036790187177
 31
0.0
  0
LINE
  5
45F
330
1F
100
AcDbEntity
  8
2
  6
Continuous
 62
     7
370
    25
100
AcDbLine
 10
3.928859975486414
 20
45.28577199509729
 30
0.0
 11
5.0
 21
44.2146319705837
 31
0.0
  0
LINE
  5
460
330
1F
100
AcDbEntity
  8
2
  6
Continuous
 62
     7
370
    25
100
AcDbLine
 10
4.282413366079693
 20
45.35648267321594
 30
0.0
 11
5.0
 21
44.63889603929563
 31
0.0
  0
LINE
  5
461
330
1F
100
AcDbEntity
  8
2
  6
Continuous
 62
     7
370
    25
100
AcDbLine
 10
4.635966756672966
 20
45.42719335133459
 30
0.0
 11
5.0
 21
45.06316010800756
 31
0.0
  0
LINE
  5
462
330
1F
100
AcDbEntity
  8
2
  6
Continuous
 62
     7
370
    25
100
AcDbLine
 10
4.989520147266245
 20
45.49790402945325
 30
0.0
 11
5.0
 21
45.48742417671949
 31
0.0
  0
LINE
  5
463
330
1F
100
AcDbEntity
  8
2
  6
Continuous
 62
     7
370
    25
100
AcDbLine
 10
36.0
 20
44.5
 30
0.0
 11
31.0
 21
43.5
 31
0.0
  0
LINE
  5
464
330
1F
100
AcDbEntity
  8
2
  6
Continuous
 62
     7
370
    25
100
AcDbLine
 10
31.0
 20
43.5
 30
0.0
 11
31.0
 21
45.5
 31
0.0
  0
LINE
  5
465
330
1F
100
AcDbEntity
  8
2
  6
Continuous
 62
     7
370
    25
100
AcDbLine
 10
31.0
 20
45.5
 30
0.0
 11
36.0
 21
44.5
 31
0.0
  0
LINE
  5
466
330
1F
100
AcDbEntity
  8
2
  6
Continuous
 62
     7
370
    25
100
AcDbLine
 10
35.48806819631184
 20
44.39761363926236
 30
0.0
 11
35.65871213087457
 21
44.56825757382509
 31
0.0
  0
LINE
  5
467
330
1F
100
AcDbEntity
  8
2
  6
Continuous
 62
     7
370
    25
100
AcDbLine
 10
34.95773811042192
 20
44.29154762208438
 30
0.0
 11
35.30515874028129
 21
44.63896825194374
 31
0.0
  0
LINE
  5
468
330
1F
100
AcDbEntity
  8
2
  6
Continuous
 62
     7
370
    25
100
AcDbLine
 10
34.42740802453201
 20
44.1854816049064
 30
0.0
 11
34.95160534968802
 21
44.7096789300624
 31
0.0
  0
LINE
  5
469
330
1F
100
AcDbEntity
  8
2
  6
Continuous
 62
     7
370
    25
100
AcDbLine
 10
33.89707793864209
 20
44.07941558772841
 30
0.0
 11
34.59805195909473
 21
44.78038960818105
 31
0.0
  0
LINE
  5
46A
330
1F
100
AcDbEntity
  8
2
  6
Continuous
 62
     7
370
    25
100
AcDbLine
 10
33.36674785275218
 20
43.97334957055044
 30
0.0
 11
34.24449856850146
 21
44.85110028629971
 31
0.0
  0
LINE
  5
46B
330
1F
100
AcDbEntity
  8
2
  6
Continuous
 62
     7
370
    25
100
AcDbLine
 10
32.83641776686226
 20
43.86728355337245
 30
0.0
 11
33.89094517790818
 21
44.92181096441837
 31
0.0
  0
LINE
  5
46C
330
1F
100
AcDbEntity
  8
2
  6
Continuous
 62
     7
370
    25
100
AcDbLine
 10
32.30608768097235
 20
43.76121753619447
 30
0.0
 11
33.5373917873149
 21
44.99252164253702
 31
0.0
  0
LINE
  5
46D
330
1F
100
AcDbEntity
  8
2
  6
Continuous
 62
     7
370
    25
100
AcDbLine
 10
31.77575759508244
 20
43.65515151901648
 30
0.0
 11
33.18383839672163
 21
45.06323232065568
 31
0.0
  0
LINE
  5
46E
330
1F
100
AcDbEntity
  8
2
  6
Continuous
 62
     7
370
    25
100
AcDbLine
 10
31.24542750919252
 20
43.5490855018385
 30
0.0
 11
32.83028500612835
 21
45.13394299877434
 31
0.0
  0
LINE
  5
46F
330
1F
100
AcDbEntity
  8
2
  6
Continuous
 62
     7
370
    25
100
AcDbLine
 10
31.0
 20
43.7279220613579
 30
0.0
 11
32.47673161553507
 21
45.20465367689299
 31
0.0
  0
LINE
  5
470
330
1F
100
AcDbEntity
  8
2
  6
Continuous
 62
     7
370
    25
100
AcDbLine
 10
31.0
 20
44.15218613006984
 30
0.0
 11
32.1231782249418
 21
45.27536435501165
 31
0.0
  0
LINE
  5
471
330
1F
100
AcDbEntity
  8
2
  6
Continuous
 62
     7
370
    25
100
AcDbLine
 10
31.0
 20
44.57645019878177
 30
0.0
 11
31.76962483434852
 21
45.3460750331303
 31
0.0
  0
LINE
  5
472
330
1F
100
AcDbEntity
  8
2
  6
Continuous
 62
     7
370
    25
100
AcDbLine
 10
31.0
 20
45.00071426749371
 30
0.0
 11
31.41607144375525
 21
45.41678571124896
 31
0.0
  0
LINE
  5
473
330
1F
100
AcDbEntity
  8
2
  6
Continuous
 62
     7
370
    25
100
AcDbLine
 10
31.0
 20
45.42497833620564
 30
0.0
 11
31.06251805316197
 21
45.48749638936761
 31
0.0
  0
LINE
  5
474
330
1F
100
AcDbEntity
  8
2
  6
Continuous
 62
     7
370
    25
100
AcDbLine
 10
31.0
 20
43.6704760932994
 30
0.0
 11
31.14206341108283
 21
43.52841268221657
 31
0.0
  0
LINE
  5
475
330
1F
100
AcDbEntity
  8
2
  6
Continuous
 62
     7
370
    25
100
AcDbLine
 10
31.0
 20
44.09474016201133
 30
0.0
 11
31.49561680167611
 21
43.59912336033523
 31
0.0
  0
LINE
  5
476
330
1F
100
AcDbEntity
  8
2
  6
Continuous
 62
     7
370
    25
100
AcDbLine
 10
31.0
 20
44.51900423072327
 30
0.0
 11
31.84917019226939
 21
43.66983403845387
 31
0.0
  0
LINE
  5
477
330
1F
100
AcDbEntity
  8
2
  6
Continuous
 62
     7
370
    25
100
AcDbLine
 10
31.0
 20
44.9432682994352
 30
0.0
 11
32.20272358286267
 21
43.74054471657253
 31
0.0
  0
LINE
  5
478
330
1F
100
AcDbEntity
  8
2
  6
Continuous
 62
     7
370
    25
100
AcDbLine
 10
31.0
 20
45.36753236814713
 30
0.0
 11
32.55627697345595
 21
43.81125539469119
 31
0.0
  0
LINE
  5
479
330
1F
100
AcDbEntity
  8
2
  6
Continuous
 62
     7
370
    25
100
AcDbLine
 10
31.36474554607383
 20
45.42705089078523
 30
0.0
 11
32.90983036404923
 21
43.88196607280985
 31
0.0
  0
LINE
  5
47A
330
1F
100
AcDbEntity
  8
2
  6
Continuous
 62
     7
370
    25
100
AcDbLine
 10
31.89507563196375
 20
45.32098487360726
 30
0.0
 11
33.26338375464251
 21
43.9526767509285
 31
0.0
  0
LINE
  5
47B
330
1F
100
AcDbEntity
  8
2
  6
Continuous
 62
     7
370
    25
100
AcDbLine
 10
32.42540571785365
 20
45.21491885642927
 30
0.0
 11
33.61693714523578
 21
44.02338742904715
 31
0.0
  0
LINE
  5
47C
330
1F
100
AcDbEntity
  8
2
  6
Continuous
 62
     7
370
    25
100
AcDbLine
 10
32.95573580374357
 20
45.10885283925128
 30
0.0
 11
33.97049053582905
 21
44.09409810716581
 31
0.0
  0
LINE
  5
47D
330
1F
100
AcDbEntity
  8
2
  6
Continuous
 62
     7
370
    25
100
AcDbLine
 10
33.48606588963349
 20
45.0027868220733
 30
0.0
 11
34.32404392642233
 21
44.16480878528446
 31
0.0
  0
LINE
  5
47E
330
1F
100
AcDbEntity
  8
2
  6
Continuous
 62
     7
370
    25
100
AcDbLine
 10
34.01639597552341
 20
44.89672080489532
 30
0.0
 11
34.67759731701562
 21
44.23551946340312
 31
0.0
  0
LINE
  5
47F
330
1F
100
AcDbEntity
  8
2
  6
Continuous
 62
     7
370
    25
100
AcDbLine
 10
34.54672606141333
 20
44.79065478771734
 30
0.0
 11
35.03115070760889
 21
44.30623014152178
 31
0.0
  0
LINE
  5
480
330
1F
100
AcDbEntity
  8
2
  6
Continuous
 62
     7
370
    25
100
AcDbLine
 10
35.07705614730325
 20
44.68458877053935
 30
0.0
 11
35.38470409820217
 21
44.37694081964044
 31
0.0
  0
LINE
  5
481
330
1F
100
AcDbEntity
  8
2
  6
Continuous
 62
     7
370
    25
100
AcDbLine
 10
35.60738623319317
 20
44.57852275336137
 30
0.0
 11
35.73825748879545
 21
44.44765149775909
 31
0.0
  0
TEXT
  5
482
330
1F
100
AcDbEntity
  8
2
  6
Continuous
 62
     7
370
    25
100
AcDbText
 10
14.969
 20
46.0
 30
0.0
 40
3.5
  1
36
 72
     1
 11
18.0
 21
46.0
 31
0.0
100
AcDbText
  0
LINE
  5
483
330
1F
100
AcDbEntity
  8
SK2
  6
Continuous
 62
     7
370
    25
100
AcDbLine
 10
-22.0
 20
30.40850345
 30
0.0
 11
-22.0
 21
55.5
 31
0.0
  0
LINE
  5
484
330
1F
100
AcDbEntity
  8
SK2
  6
Continuous
 62
     7
370
    25
100
AcDbLine
 10
36.0
 20
55.5
 30
0.0
 11
36.0
 21
32.50850345
 31
0.0
  0
LINE
  5
485
330
1F
100
AcDbEntity
  8
SK2
  6
Continuous
 62
     7
370
    25
100
AcDbLine
 10
-22.0
 20
54.5
 30
0.0
 11
36.0
 21
54.5
 31
0.0
  0
LINE
  5
486
330
1F
100
AcDbEntity
  8
SK2
  6
Continuous
 62
     7
370
    25
100
AcDbLine
 10
-22.0
 20
54.5
 30
0.0
 11
-17.0
 21
55.5
 31
0.0
  0
LINE
  5
487
330
1F
100
AcDbEntity
  8
SK2
  6
Continuous
 62
     7
370
    25
100
AcDbLine
 10
-17.0
 20
55.5
 30
0.0
 11
-17.0
 21
53.5
 31
0.0
  0
LINE
  5
488
330
1F
100
AcDbEntity
  8
SK2
  6
Continuous
 62
     7
370
    25
100
AcDbLine
 10
-17.0
 20
53.5
 30
0.0
 11
-22.0
 21
54.5
 31
0.0
  0
LINE
  5
489
330
1F
100
AcDbEntity
  8
SK2
  6
Continuous
 62
     7
370
    25
100
AcDbLine
 10
-17.29341622907672
 20
53.55868324581535
 30
0.0
 11
-17.0
 21
53.85209947489207
 31
0.0
  0
LINE
  5
48A
330
1F
100
AcDbEntity
  8
SK2
  6
Continuous
 62
     7
370
    25
100
AcDbLine
 10
-17.64696961967
 20
53.629393923934
 30
0.0
 11
-17.0
 21
54.27636354360401
 31
0.0
  0
LINE
  5
48B
330
1F
100
AcDbEntity
  8
SK2
  6
Continuous
 62
     7
370
    25
100
AcDbLine
 10
-18.00052301026327
 20
53.70010460205266
 30
0.0
 11
-17.0
 21
54.70062761231593
 31
0.0
  0
LINE
  5
48C
330
1F
100
AcDbEntity
  8
SK2
  6
Continuous
 62
     7
370
    25
100
AcDbLine
 10
-18.35407640085655
 20
53.77081528017131
 30
0.0
 11
-17.0
 21
55.12489168102786
 31
0.0
  0
LINE
  5
48D
330
1F
100
AcDbEntity
  8
SK2
  6
Continuous
 62
     7
370
    25
100
AcDbLine
 10
-18.70762979144983
 20
53.84152595828996
 30
0.0
 11
-17.06144468717475
 21
55.48771106256505
 31
0.0
  0
LINE
  5
48E
330
1F
100
AcDbEntity
  8
SK2
  6
Continuous
 62
     7
370
    25
100
AcDbLine
 10
-19.06118318204311
 20
53.91223663640862
 30
0.0
 11
-17.59177477306467
 21
55.38164504538706
 31
0.0
  0
LINE
  5
48F
330
1F
100
AcDbEntity
  8
SK2
  6
Continuous
 62
     7
370
    25
100
AcDbLine
 10
-19.41473657263639
 20
53.98294731452728
 30
0.0
 11
-18.12210485895459
 21
55.27557902820908
 31
0.0
  0
LINE
  5
490
330
1F
100
AcDbEntity
  8
SK2
  6
Continuous
 62
     7
370
    25
100
AcDbLine
 10
-19.76828996322966
 20
54.05365799264593
 30
0.0
 11
-18.65243494484449
 21
55.1695130110311
 31
0.0
  0
LINE
  5
491
330
1F
100
AcDbEntity
  8
SK2
  6
Continuous
 62
     7
370
    25
100
AcDbLine
 10
-20.12184335382293
 20
54.12436867076459
 30
0.0
 11
-19.18276503073441
 21
55.06344699385312
 31
0.0
  0
LINE
  5
492
330
1F
100
AcDbEntity
  8
SK2
  6
Continuous
 62
     7
370
    25
100
AcDbLine
 10
-20.47539674441621
 20
54.19507934888324
 30
0.0
 11
-19.71309511662432
 21
54.95738097667513
 31
0.0
  0
LINE
  5
493
330
1F
100
AcDbEntity
  8
SK2
  6
Continuous
 62
     7
370
    25
100
AcDbLine
 10
-20.82895013500948
 20
54.2657900270019
 30
0.0
 11
-20.24342520251423
 21
54.85131495949715
 31
0.0
  0
LINE
  5
494
330
1F
100
AcDbEntity
  8
SK2
  6
Continuous
 62
     7
370
    25
100
AcDbLine
 10
-21.18250352560276
 20
54.33650070512056
 30
0.0
 11
-20.77375528840415
 21
54.74524894231917
 31
0.0
  0
LINE
  5
495
330
1F
100
AcDbEntity
  8
SK2
  6
Continuous
 62
     7
370
    25
100
AcDbLine
 10
-21.53605691619604
 20
54.40721138323921
 30
0.0
 11
-21.30408537429406
 21
54.63918292514118
 31
0.0
  0
LINE
  5
496
330
1F
100
AcDbEntity
  8
SK2
  6
Continuous
 62
     7
370
    25
100
AcDbLine
 10
-21.8896103067893
 20
54.47792206135787
 30
0.0
 11
-21.83441546018397
 21
54.5331169079632
 31
0.0
  0
LINE
  5
497
330
1F
100
AcDbEntity
  8
SK2
  6
Continuous
 62
     7
370
    25
100
AcDbLine
 10
-21.85972225765139
 20
54.52805554846972
 30
0.0
 11
-21.78958338647709
 21
54.45791667729542
 31
0.0
  0
LINE
  5
498
330
1F
100
AcDbEntity
  8
SK2
  6
Continuous
 62
     7
370
    25
100
AcDbLine
 10
-21.50616886705811
 20
54.59876622658837
 30
0.0
 11
-21.25925330058717
 21
54.35185066011744
 31
0.0
  0
LINE
  5
499
330
1F
100
AcDbEntity
  8
SK2
  6
Continuous
 62
     7
370
    25
100
AcDbLine
 10
-21.15261547646484
 20
54.66947690470703
 30
0.0
 11
-20.72892321469726
 21
54.24578464293946
 31
0.0
  0
LINE
  5
49A
330
1F
100
AcDbEntity
  8
SK2
  6
Continuous
 62
     7
370
    25
100
AcDbLine
 10
-20.79906208587157
 20
54.74018758282568
 30
0.0
 11
-20.19859312880735
 21
54.13971862576147
 31
0.0
  0
LINE
  5
49B
330
1F
100
AcDbEntity
  8
SK2
  6
Continuous
 62
     7
370
    25
100
AcDbLine
 10
-20.44550869527829
 20
54.81089826094434
 30
0.0
 11
-19.66826304291743
 21
54.03365260858349
 31
0.0
  0
LINE
  5
49C
330
1F
100
AcDbEntity
  8
SK2
  6
Continuous
 62
     7
370
    25
100
AcDbLine
 10
-20.09195530468501
 20
54.881608939063
 30
0.0
 11
-19.13793295702751
 21
53.9275865914055
 31
0.0
  0
LINE
  5
49D
330
1F
100
AcDbEntity
  8
SK2
  6
Continuous
 62
     7
370
    25
100
AcDbLine
 10
-19.73840191409174
 20
54.95231961718166
 30
0.0
 11
-18.6076028711376
 21
53.82152057422752
 31
0.0
  0
LINE
  5
49E
330
1F
100
AcDbEntity
  8
SK2
  6
Continuous
 62
     7
370
    25
100
AcDbLine
 10
-19.38484852349846
 20
55.02303029530031
 30
0.0
 11
-18.07727278524769
 21
53.71545455704954
 31
0.0
  0
LINE
  5
49F
330
1F
100
AcDbEntity
  8
SK2
  6
Continuous
 62
     7
370
    25
100
AcDbLine
 10
-19.03129513290518
 20
55.09374097341896
 30
0.0
 11
-17.54694269935777
 21
53.60938853987156
 31
0.0
  0
LINE
  5
4A0
330
1F
100
AcDbEntity
  8
SK2
  6
Continuous
 62
     7
370
    25
100
AcDbLine
 10
-18.67774174231191
 20
55.16445165153762
 30
0.0
 11
-17.01661261346786
 21
53.50332252269357
 31
0.0
  0
LINE
  5
4A1
330
1F
100
AcDbEntity
  8
SK2
  6
Continuous
 62
     7
370
    25
100
AcDbLine
 10
-18.32418835171864
 20
55.23516232965628
 30
0.0
 11
-17.0
 21
53.91097397793764
 31
0.0
  0
LINE
  5
4A2
330
1F
100
AcDbEntity
  8
SK2
  6
Continuous
 62
     7
370
    25
100
AcDbLine
 10
-17.97063496112536
 20
55.30587300777493
 30
0.0
 11
-17.0
 21
54.33523804664958
 31
0.0
  0
LINE
  5
4A3
330
1F
100
AcDbEntity
  8
SK2
  6
Continuous
 62
     7
370
    25
100
AcDbLine
 10
-17.61708157053208
 20
55.37658368589358
 30
0.0
 11
-17.0
 21
54.75950211536151
 31
0.0
  0
LINE
  5
4A4
330
1F
100
AcDbEntity
  8
SK2
  6
Continuous
 62
     7
370
    25
100
AcDbLine
 10
-17.2635281799388
 20
55.44729436401224
 30
0.0
 11
-17.0
 21
55.18376618407343
 31
0.0
  0
LINE
  5
4A5
330
1F
100
AcDbEntity
  8
SK2
  6
Continuous
 62
     7
370
    25
100
AcDbLine
 10
36.0
 20
54.5
 30
0.0
 11
31.0
 21
53.5
 31
0.0
  0
LINE
  5
4A6
330
1F
100
AcDbEntity
  8
SK2
  6
Continuous
 62
     7
370
    25
100
AcDbLine
 10
31.0
 20
53.5
 30
0.0
 11
31.0
 21
55.5
 31
0.0
  0
LINE
  5
4A7
330
1F
100
AcDbEntity
  8
SK2
  6
Continuous
 62
     7
370
    25
100
AcDbLine
 10
31.0
 20
55.5
 30
0.0
 11
36.0
 21
54.5
 31
0.0
  0
LINE
  5
4A8
330
1F
100
AcDbEntity
  8
SK2
  6
Continuous
 62
     7
370
    25
100
AcDbLine
 10
35.79047622084389
 20
54.45809524416877
 30
0.0
 11
35.8603174805626
 21
54.52793650388747
 31
0.0
  0
LINE
  5
4A9
330
1F
100
AcDbEntity
  8
SK2
  6
Continuous
 62
     7
370
    25
100
AcDbLine
 10
35.26014613495398
 20
54.35202922699079
 30
0.0
 11
35.50676408996932
 21
54.59864718200613
 31
0.0
  0
LINE
  5
4AA
330
1F
100
AcDbEntity
  8
SK2
  6
Continuous
 62
     7
370
    25
100
AcDbLine
 10
34.72981604906406
 20
54.24596320981281
 30
0.0
 11
35.15321069937605
 21
54.66935786012479
 31
0.0
  0
LINE
  5
4AB
330
1F
100
AcDbEntity
  8
SK2
  6
Continuous
 62
     7
370
    25
100
AcDbLine
 10
34.19948596317415
 20
54.13989719263483
 30
0.0
 11
34.79965730878277
 21
54.74006853824345
 31
0.0
  0
LINE
  5
4AC
330
1F
100
AcDbEntity
  8
SK2
  6
Continuous
 62
     7
370
    25
100
AcDbLine
 10
33.66915587728423
 20
54.03383117545684
 30
0.0
 11
34.44610391818949
 21
54.81077921636211
 31
0.0
  0
LINE
  5
4AD
330
1F
100
AcDbEntity
  8
SK2
  6
Continuous
 62
     7
370
    25
100
AcDbLine
 10
33.13882579139432
 20
53.92776515827886
 30
0.0
 11
34.09255052759621
 21
54.88148989448075
 31
0.0
  0
LINE
  5
4AE
330
1F
100
AcDbEntity
  8
SK2
  6
Continuous
 62
     7
370
    25
100
AcDbLine
 10
32.6084957055044
 20
53.82169914110087
 30
0.0
 11
33.73899713700294
 21
54.95220057259942
 31
0.0
  0
LINE
  5
4AF
330
1F
100
AcDbEntity
  8
SK2
  6
Continuous
 62
     7
370
    25
100
AcDbLine
 10
32.07816561961449
 20
53.71563312392289
 30
0.0
 11
33.38544374640966
 21
55.02291125071807
 31
0.0
  0
LINE
  5
4B0
330
1F
100
AcDbEntity
  8
SK2
  6
Continuous
 62
     7
370
    25
100
AcDbLine
 10
31.54783553372458
 20
53.60956710674491
 30
0.0
 11
33.03189035581639
 21
55.09362192883673
 31
0.0
  0
LINE
  5
4B1
330
1F
100
AcDbEntity
  8
SK2
  6
Continuous
 62
     7
370
    25
100
AcDbLine
 10
31.01750544783467
 20
53.50350108956692
 30
0.0
 11
32.6783369652231
 21
55.16433260695538
 31
0.0
  0
LINE
  5
4B2
330
1F
100
AcDbEntity
  8
SK2
  6
Continuous
 62
     7
370
    25
100
AcDbLine
 10
31.0
 20
53.91025971044419
 30
0.0
 11
32.32478357462983
 21
55.23504328507403
 31
0.0
  0
LINE
  5
4B3
330
1F
100
AcDbEntity
  8
SK2
  6
Continuous
 62
     7
370
    25
100
AcDbLine
 10
31.0
 20
54.33452377915613
 30
0.0
 11
31.97123018403656
 21
55.3057539631927
 31
0.0
  0
LINE
  5
4B4
330
1F
100
AcDbEntity
  8
SK2
  6
Continuous
 62
     7
370
    25
100
AcDbLine
 10
31.0
 20
54.75878784786806
 30
0.0
 11
31.61767679344328
 21
55.37646464131135
 31
0.0
  0
LINE
  5
4B5
330
1F
100
AcDbEntity
  8
SK2
  6
Continuous
 62
     7
370
    25
100
AcDbLine
 10
31.0
 20
55.18305191658
 30
0.0
 11
31.26412340285
 21
55.44717531943
 31
0.0
  0
LINE
  5
4B6
330
1F
100
AcDbEntity
  8
SK2
  6
Continuous
 62
     7
370
    25
100
AcDbLine
 10
31.0
 20
53.85281374238566
 30
0.0
 11
31.29401145198806
 21
53.55880229039761
 31
0.0
  0
LINE
  5
4B7
330
1F
100
AcDbEntity
  8
SK2
  6
Continuous
 62
     7
370
    25
100
AcDbLine
 10
31.0
 20
54.2770778110976
 30
0.0
 11
31.64756484258134
 21
53.62951296851627
 31
0.0
  0
LINE
  5
4B8
330
1F
100
AcDbEntity
  8
SK2
  6
Continuous
 62
     7
370
    25
100
AcDbLine
 10
31.0
 20
54.70134187980953
 30
0.0
 11
32.00111823317462
 21
53.70022364663492
 31
0.0
  0
LINE
  5
4B9
330
1F
100
AcDbEntity
  8
SK2
  6
Continuous
 62
     7
370
    25
100
AcDbLine
 10
31.0
 20
55.12560594852147
 30
0.0
 11
32.35467162376789
 21
53.77093432475358
 31
0.0
  0
LINE
  5
4BA
330
1F
100
AcDbEntity
  8
SK2
  6
Continuous
 62
     7
370
    25
100
AcDbLine
 10
31.06233752154174
 20
55.48753249569165
 30
0.0
 11
32.70822501436117
 21
53.84164500287223
 31
0.0
  0
LINE
  5
4BB
330
1F
100
AcDbEntity
  8
SK2
  6
Continuous
 62
     7
370
    25
100
AcDbLine
 10
31.59266760743166
 20
55.38146647851367
 30
0.0
 11
33.06177840495445
 21
53.91235568099089
 31
0.0
  0
LINE
  5
4BC
330
1F
100
AcDbEntity
  8
SK2
  6
Continuous
 62
     7
370
    25
100
AcDbLine
 10
32.12299769332158
 20
55.27540046133569
 30
0.0
 11
33.41533179554773
 21
53.98306635910954
 31
0.0
  0
LINE
  5
4BD
330
1F
100
AcDbEntity
  8
SK2
  6
Continuous
 62
     7
370
    25
100
AcDbLine
 10
32.65332777921148
 20
55.16933444415771
 30
0.0
 11
33.768885186141
 21
54.05377703722819
 31
0.0
  0
LINE
  5
4BE
330
1F
100
AcDbEntity
  8
SK2
  6
Continuous
 62
     7
370
    25
100
AcDbLine
 10
33.1836578651014
 20
55.06326842697972
 30
0.0
 11
34.12243857673428
 21
54.12448771534685
 31
0.0
  0
LINE
  5
4BF
330
1F
100
AcDbEntity
  8
SK2
  6
Continuous
 62
     7
370
    25
100
AcDbLine
 10
33.71398795099132
 20
54.95720240980174
 30
0.0
 11
34.47599196732755
 21
54.19519839346551
 31
0.0
  0
LINE
  5
4C0
330
1F
100
AcDbEntity
  8
SK2
  6
Continuous
 62
     7
370
    25
100
AcDbLine
 10
34.24431803688124
 20
54.85113639262376
 30
0.0
 11
34.82954535792084
 21
54.26590907158416
 31
0.0
  0
LINE
  5
4C1
330
1F
100
AcDbEntity
  8
SK2
  6
Continuous
 62
     7
370
    25
100
AcDbLine
 10
34.77464812277116
 20
54.74507037544577
 30
0.0
 11
35.18309874851411
 21
54.33661974970282
 31
0.0
  0
LINE
  5
4C2
330
1F
100
AcDbEntity
  8
SK2
  6
Continuous
 62
     7
370
    25
100
AcDbLine
 10
35.30497820866109
 20
54.63900435826778
 30
0.0
 11
35.5366521391074
 21
54.40733042782148
 31
0.0
  0
LINE
  5
4C3
330
1F
100
AcDbEntity
  8
SK2
  6
Continuous
 62
     7
370
    25
100
AcDbLine
 10
35.83530829455101
 20
54.5329383410898
 30
0.0
 11
35.89020552970067
 21
54.47804110594014
 31
0.0
  0
TEXT
  5
4C4
330
1F
100
AcDbEntity
  8
SK2
  6
Continuous
 62
     7
370
    25
100
AcDbText
 10
3.969
 20
56.0
 30
0.0
 40
3.5
  1
58
 72
     1
 11
7.0
 21
56.0
 31
0.0
100
AcDbText
  0
LINE
  5
4C5
330
1F
100
AcDbEntity
  8
2
  6
Continuous
 62
     7
370
    25
100
AcDbLine
 10
36.0
 20
12.5
 30
0.0
 11
13.0
 21
12.5
 31
0.0
  0
LINE
  5
4C6
330
1F
100
AcDbEntity
  8
2
  6
Continuous
 62
     7
370
    25
100
AcDbLine
 10
36.0
 20
12.5
 30
0.0
 11
36.0
 21
35.5
 31
0.0
  0
ARC
  5
4C7
330
1F
100
AcDbEntity
  8
2
  6
Continuous
 62
     7
370
    25
100
AcDbCircle
 10
36.0
 20
12.5
 30
0.0
 40
22.0
100
AcDbArc
 50
90.0
 51
180.0
  0
LINE
  5
4C8
330
1F
100
AcDbEntity
  8
2
  6
Continuous
 62
     7
370
    25
100
AcDbLine
 10
14.0
 20
12.5
 30
0.0
 11
13.57465940934571
 21
17.58124840781691
 31
0.0
  0
LINE
  5
4C9
330
1F
100
AcDbEntity
  8
2
  6
Continuous
 62
     7
370
    25
100
AcDbLine
 10
13.57465940934571
 20
17.58124840781691
 30
0.0
 11
15.56170422701793
 21
17.35397568054418
 31
0.0
  0
LINE
  5
4CA
330
1F
100
AcDbEntity
  8
2
  6
Continuous
 62
     7
370
    25
100
AcDbLine
 10
15.56170422701793
 20
17.35397568054418
 30
0.0
 11
14.0
 21
12.5
 31
0.0
  0
LINE
  5
4CB
330
1F
100
AcDbEntity
  8
2
  6
Continuous
 62
     7
370
    25
100
AcDbLine
 10
13.97517674439259
 20
12.79654618158581
 30
0.0
 11
14.15244308240788
 21
12.97381251960111
 31
0.0
  0
LINE
  5
4CC
330
1F
100
AcDbEntity
  8
2
  6
Continuous
 62
     7
370
    25
100
AcDbLine
 10
13.94240568963811
 20
13.18803919554326
 30
0.0
 11
14.35369471029828
 21
13.59932821620343
 31
0.0
  0
LINE
  5
4CD
330
1F
100
AcDbEntity
  8
2
  6
Continuous
 62
     7
370
    25
100
AcDbLine
 10
13.90963463488363
 20
13.57953220950071
 30
0.0
 11
14.55494633818868
 21
14.22484391280575
 31
0.0
  0
LINE
  5
4CE
330
1F
100
AcDbEntity
  8
2
  6
Continuous
 62
     7
370
    25
100
AcDbLine
 10
13.87686358012915
 20
13.97102522345815
 30
0.0
 11
14.75619796607907
 21
14.85035960940808
 31
0.0
  0
LINE
  5
4CF
330
1F
100
AcDbEntity
  8
2
  6
Continuous
 62
     7
370
    25
100
AcDbLine
 10
13.84409252537467
 20
14.3625182374156
 30
0.0
 11
14.95744959396947
 21
15.4758753060104
 31
0.0
  0
LINE
  5
4D0
330
1F
100
AcDbEntity
  8
2
  6
Continuous
 62
     7
370
    25
100
AcDbLine
 10
13.81132147062019
 20
14.75401125137305
 30
0.0
 11
15.15870122185987
 21
16.10139100261273
 31
0.0
  0
LINE
  5
4D1
330
1F
100
AcDbEntity
  8
2
  6
Continuous
 62
     7
370
    25
100
AcDbLine
 10
13.77855041586571
 20
15.14550426533049
 30
0.0
 11
15.35995284975027
 21
16.72690669921506
 31
0.0
  0
LINE
  5
4D2
330
1F
100
AcDbEntity
  8
2
  6
Continuous
 62
     7
370
    25
100
AcDbLine
 10
13.74577936111122
 20
15.53699727928794
 30
0.0
 11
15.56120447764066
 21
17.35242239581738
 31
0.0
  0
LINE
  5
4D3
330
1F
100
AcDbEntity
  8
2
  6
Continuous
 62
     7
370
    25
100
AcDbLine
 10
13.71300830635674
 20
15.92849029324539
 30
0.0
 11
15.18193110052042
 21
17.39741308740906
 31
0.0
  0
LINE
  5
4D4
330
1F
100
AcDbEntity
  8
2
  6
Continuous
 62
     7
370
    25
100
AcDbLine
 10
13.68023725160226
 20
16.31998330720283
 30
0.0
 11
14.80121257124573
 21
17.44095862684631
 31
0.0
  0
LINE
  5
4D5
330
1F
100
AcDbEntity
  8
2
  6
Continuous
 62
     7
370
    25
100
AcDbLine
 10
13.64746619684778
 20
16.71147632116028
 30
0.0
 11
14.42049404197105
 21
17.48450416628355
 31
0.0
  0
LINE
  5
4D6
330
1F
100
AcDbEntity
  8
2
  6
Continuous
 62
     7
370
    25
100
AcDbLine
 10
13.6146951420933
 20
17.10296933511773
 30
0.0
 11
14.03977551269637
 21
17.5280497057208
 31
0.0
  0
LINE
  5
4D7
330
1F
100
AcDbEntity
  8
2
  6
Continuous
 62
     7
370
    25
100
AcDbLine
 10
13.58192408733882
 20
17.49446234907517
 30
0.0
 11
13.65905698342169
 21
17.57159524515804
 31
0.0
  0
LINE
  5
4D8
330
1F
100
AcDbEntity
  8
2
  6
Continuous
 62
     7
370
    25
100
AcDbLine
 10
13.97911292169483
 20
12.74952340715667
 30
0.0
 11
14.05565463463917
 21
12.67298169421233
 31
0.0
  0
LINE
  5
4D9
330
1F
100
AcDbEntity
  8
2
  6
Continuous
 62
     7
370
    25
100
AcDbLine
 10
13.94035426566773
 20
13.2125461318957
 30
0.0
 11
14.15892895614924
 21
12.99397144141419
 31
0.0
  0
LINE
  5
4DA
330
1F
100
AcDbEntity
  8
2
  6
Continuous
 62
     7
370
    25
100
AcDbLine
 10
13.90159560964062
 20
13.67556885663473
 30
0.0
 11
14.2622032776593
 21
13.31496118861605
 31
0.0
  0
LINE
  5
4DB
330
1F
100
AcDbEntity
  8
2
  6
Continuous
 62
     7
370
    25
100
AcDbLine
 10
13.86283695361351
 20
14.13859158137377
 30
0.0
 11
14.36547759916937
 21
13.63595093581791
 31
0.0
  0
LINE
  5
4DC
330
1F
100
AcDbEntity
  8
2
  6
Continuous
 62
     7
370
    25
100
AcDbLine
 10
13.82407829758641
 20
14.6016143061128
 30
0.0
 11
14.46875192067944
 21
13.95694068301977
 31
0.0
  0
LINE
  5
4DD
330
1F
100
AcDbEntity
  8
2
  6
Continuous
 62
     7
370
    25
100
AcDbLine
 10
13.7853196415593
 20
15.06463703085183
 30
0.0
 11
14.5720262421895
 21
14.27793043022163
 31
0.0
  0
LINE
  5
4DE
330
1F
100
AcDbEntity
  8
2
  6
Continuous
 62
     7
370
    25
100
AcDbLine
 10
13.74656098553219
 20
15.52765975559087
 30
0.0
 11
14.67530056369957
 21
14.59892017742349
 31
0.0
  0
LINE
  5
4DF
330
1F
100
AcDbEntity
  8
2
  6
Continuous
 62
     7
370
    25
100
AcDbLine
 10
13.70780232950508
 20
15.9906824803299
 30
0.0
 11
14.77857488520964
 21
14.91990992462535
 31
0.0
  0
LINE
  5
4E0
330
1F
100
AcDbEntity
  8
2
  6
Continuous
 62
     7
370
    25
100
AcDbLine
 10
13.66904367347798
 20
16.45370520506894
 30
0.0
 11
14.8818492067197
 21
15.24089967182721
 31
0.0
  0
LINE
  5
4E1
330
1F
100
AcDbEntity
  8
2
  6
Continuous
 62
     7
370
    25
100
AcDbLine
 10
13.63028501745087
 20
16.91672792980797
 30
0.0
 11
14.98512352822977
 21
15.56188941902907
 31
0.0
  0
LINE
  5
4E2
330
1F
100
AcDbEntity
  8
2
  6
Continuous
 62
     7
370
    25
100
AcDbLine
 10
13.59152636142377
 20
17.379750654547
 30
0.0
 11
15.08839784973983
 21
15.88287916623093
 31
0.0
  0
LINE
  5
4E3
330
1F
100
AcDbEntity
  8
2
  6
Continuous
 62
     7
370
    25
100
AcDbLine
 10
13.84524106305266
 20
17.55030002163004
 30
0.0
 11
15.1916721712499
 21
16.2038689134328
 31
0.0
  0
LINE
  5
4E4
330
1F
100
AcDbEntity
  8
2
  6
Continuous
 62
     7
370
    25
100
AcDbLine
 10
14.32429839306588
 20
17.49550676032874
 30
0.0
 11
15.29494649275997
 21
16.52485866063466
 31
0.0
  0
LINE
  5
4E5
330
1F
100
AcDbEntity
  8
2
  6
Continuous
 62
     7
370
    25
100
AcDbLine
 10
14.8033557230791
 20
17.44071349902745
 30
0.0
 11
15.39822081427003
 21
16.84584840783652
 31
0.0
  0
LINE
  5
4E6
330
1F
100
AcDbEntity
  8
2
  6
Continuous
 62
     7
370
    25
100
AcDbLine
 10
15.28241305309233
 20
17.38592023772615
 30
0.0
 11
15.5014951357801
 21
17.16683815503838
 31
0.0
  0
LINE
  5
4E7
330
1F
100
AcDbEntity
  8
2
  6
Continuous
 62
     7
370
    25
100
AcDbLine
 10
36.0
 20
34.5
 30
0.0
 11
31.14602431945582
 21
32.93829577298207
 31
0.0
  0
LINE
  5
4E8
330
1F
100
AcDbEntity
  8
2
  6
Continuous
 62
     7
370
    25
100
AcDbLine
 10
31.14602431945582
 20
32.93829577298207
 30
0.0
 11
30.91875159218309
 21
34.92534059065429
 31
0.0
  0
LINE
  5
4E9
330
1F
100
AcDbEntity
  8
2
  6
Continuous
 62
     7
370
    25
100
AcDbLine
 10
30.91875159218309
 20
34.92534059065429
 30
0.0
 11
36.0
 21
34.5
 31
0.0
  0
LINE
  5
4EA
330
1F
100
AcDbEntity
  8
2
  6
Continuous
 62
     7
370
    25
100
AcDbLine
 10
35.52618748039877
 20
34.34755691759207
 30
0.0
 11
35.70345381841411
 21
34.52482325560742
 31
0.0
  0
LINE
  5
4EB
330
1F
100
AcDbEntity
  8
2
  6
Continuous
 62
     7
370
    25
100
AcDbLine
 10
34.90067178379644
 20
34.14630528970168
 30
0.0
 11
35.31196080445665
 21
34.55759431036189
 31
0.0
  0
LINE
  5
4EC
330
1F
100
AcDbEntity
  8
2
  6
Continuous
 62
     7
370
    25
100
AcDbLine
 10
34.27515608719411
 20
33.94505366181127
 30
0.0
 11
34.92046779049921
 21
34.59036536511638
 31
0.0
  0
LINE
  5
4ED
330
1F
100
AcDbEntity
  8
2
  6
Continuous
 62
     7
370
    25
100
AcDbLine
 10
33.64964039059178
 20
33.74380203392088
 30
0.0
 11
34.52897477654176
 21
34.62313641987086
 31
0.0
  0
LINE
  5
4EE
330
1F
100
AcDbEntity
  8
2
  6
Continuous
 62
     7
370
    25
100
AcDbLine
 10
33.02412469398946
 20
33.54255040603049
 30
0.0
 11
34.13748176258431
 21
34.65590747462534
 31
0.0
  0
LINE
  5
4EF
330
1F
100
AcDbEntity
  8
2
  6
Continuous
 62
     7
370
    25
100
AcDbLine
 10
32.39860899738714
 20
33.34129877814009
 30
0.0
 11
33.74598874862686
 21
34.68867852937981
 31
0.0
  0
LINE
  5
4F0
330
1F
100
AcDbEntity
  8
2
  6
Continuous
 62
     7
370
    25
100
AcDbLine
 10
31.77309330078482
 20
33.14004715024969
 30
0.0
 11
33.35449573466941
 21
34.7214495841343
 31
0.0
  0
LINE
  5
4F1
330
1F
100
AcDbEntity
  8
2
  6
Continuous
 62
     7
370
    25
100
AcDbLine
 10
31.1475776041825
 20
32.9387955223593
 30
0.0
 11
32.96300272071196
 21
34.75422063888878
 31
0.0
  0
LINE
  5
4F2
330
1F
100
AcDbEntity
  8
2
  6
Continuous
 62
     7
370
    25
100
AcDbLine
 10
31.10258691259093
 20
33.31806889947966
 30
0.0
 11
32.57150970675452
 21
34.78699169364327
 31
0.0
  0
LINE
  5
4F3
330
1F
100
AcDbEntity
  8
2
  6
Continuous
 62
     7
370
    25
100
AcDbLine
 10
31.05904137315369
 20
33.69878742875436
 30
0.0
 11
32.18001669279707
 21
34.81976274839774
 31
0.0
  0
LINE
  5
4F4
330
1F
100
AcDbEntity
  8
2
  6
Continuous
 62
     7
370
    25
100
AcDbLine
 10
31.01549583371644
 20
34.07950595802904
 30
0.0
 11
31.78852367883962
 21
34.85253380315223
 31
0.0
  0
LINE
  5
4F5
330
1F
100
AcDbEntity
  8
2
  6
Continuous
 62
     7
370
    25
100
AcDbLine
 10
30.9719502942792
 20
34.46022448730373
 30
0.0
 11
31.39703066488217
 21
34.8853048579067
 31
0.0
  0
LINE
  5
4F6
330
1F
100
AcDbEntity
  8
2
  6
Continuous
 62
     7
370
    25
100
AcDbLine
 10
30.92840475484195
 20
34.84094301657841
 30
0.0
 11
31.00553765092472
 21
34.91807591266119
 31
0.0
  0
LINE
  5
4F7
330
1F
100
AcDbEntity
  8
2
  6
Continuous
 62
     7
370
    25
100
AcDbLine
 10
31.09387160113995
 20
33.3942668430732
 30
0.0
 11
31.45154524430185
 21
33.03659319991129
 31
0.0
  0
LINE
  5
4F8
330
1F
100
AcDbEntity
  8
2
  6
Continuous
 62
     7
370
    25
100
AcDbLine
 10
31.03907833983865
 20
33.87332417308642
 30
0.0
 11
31.77253499150372
 21
33.13986752142135
 31
0.0
  0
LINE
  5
4F9
330
1F
100
AcDbEntity
  8
2
  6
Continuous
 62
     7
370
    25
100
AcDbLine
 10
30.98428507853736
 20
34.35238150309965
 30
0.0
 11
32.09352473870559
 21
33.24314184293142
 31
0.0
  0
LINE
  5
4FA
330
1F
100
AcDbEntity
  8
2
  6
Continuous
 62
     7
370
    25
100
AcDbLine
 10
30.92949181723607
 20
34.83143883311287
 30
0.0
 11
32.41451448590745
 21
33.34641616444149
 31
0.0
  0
LINE
  5
4FB
330
1F
100
AcDbEntity
  8
2
  6
Continuous
 62
     7
370
    25
100
AcDbLine
 10
31.29101556027518
 20
34.89417915878569
 30
0.0
 11
32.73550423310931
 21
33.44969048595156
 31
0.0
  0
LINE
  5
4FC
330
1F
100
AcDbEntity
  8
2
  6
Continuous
 62
     7
370
    25
100
AcDbLine
 10
31.75403828501422
 20
34.85542050275858
 30
0.0
 11
33.05649398031118
 21
33.55296480746162
 31
0.0
  0
LINE
  5
4FD
330
1F
100
AcDbEntity
  8
2
  6
Continuous
 62
     7
370
    25
100
AcDbLine
 10
32.21706100975324
 20
34.81666184673148
 30
0.0
 11
33.37748372751304
 21
33.65623912897168
 31
0.0
  0
LINE
  5
4FE
330
1F
100
AcDbEntity
  8
2
  6
Continuous
 62
     7
370
    25
100
AcDbLine
 10
32.68008373449229
 20
34.77790319070436
 30
0.0
 11
33.6984734747149
 21
33.75951345048176
 31
0.0
  0
LINE
  5
4FF
330
1F
100
AcDbEntity
  8
2
  6
Continuous
 62
     7
370
    25
100
AcDbLine
 10
33.14310645923133
 20
34.73914453467726
 30
0.0
 11
34.01946322191677
 21
33.86278777199182
 31
0.0
  0
LINE
  5
500
330
1F
100
AcDbEntity
  8
2
  6
Continuous
 62
     7
370
    25
100
AcDbLine
 10
33.60612918397036
 20
34.70038587865015
 30
0.0
 11
34.34045296911863
 21
33.96606209350189
 31
0.0
  0
LINE
  5
501
330
1F
100
AcDbEntity
  8
2
  6
Continuous
 62
     7
370
    25
100
AcDbLine
 10
34.0691519087094
 20
34.66162722262305
 30
0.0
 11
34.66144271632049
 21
34.06933641501196
 31
0.0
  0
LINE
  5
502
330
1F
100
AcDbEntity
  8
2
  6
Continuous
 62
     7
370
    25
100
AcDbLine
 10
34.53217463344844
 20
34.62286856659595
 30
0.0
 11
34.98243246352236
 21
34.17261073652203
 31
0.0
  0
LINE
  5
503
330
1F
100
AcDbEntity
  8
2
  6
Continuous
 62
     7
370
    25
100
AcDbLine
 10
34.99519735818749
 20
34.58410991056883
 30
0.0
 11
35.30342221072423
 21
34.2758850580321
 31
0.0
  0
LINE
  5
504
330
1F
100
AcDbEntity
  8
2
  6
Continuous
 62
     7
370
    25
100
AcDbLine
 10
35.45822008292653
 20
34.54535125454173
 30
0.0
 11
35.62441195792609
 21
34.37915937954217
 31
0.0
  0
LINE
  5
505
330
1F
100
AcDbEntity
  8
2
  6
Continuous
 62
     7
370
    25
100
AcDbLine
 10
35.92124280766556
 20
34.50659259851462
 30
0.0
 11
35.94540170512795
 21
34.48243370105223
 31
0.0
  0
TEXT
  5
506
330
1F
100
AcDbEntity
  8
2
  6
Continuous
 62
     7
370
    25
100
AcDbText
 10
16.1681296614515
 20
25.90214837721924
 30
0.0
 40
3.500000000000001
  1
90°
 50
44.99999999999999
 72
     1
 11
19.38299064211614
 21
29.11700935788388
 31
0.0
100
AcDbText
  0
LINE
  5
507
330
1F
100
AcDbEntity
  8
4
  6
LONGDASH_DASH
 62
     2
370
    25
100
AcDbLine
 10
0.0
 20
0.0
 30
0.0
 11
36.0
 21
0.0
 31
0.0
  0
LINE
  5
508
330
1F
100
AcDbEntity
  8
SK4
  6
LONGDASH_DASH
 62
     2
370
    25
100
AcDbLine
 10
-27.0
 20
0.0
 30
0.0
 11
41.0
 21
0.0
 31
0.0
  0
LINE
  5
509
330
1F
100
AcDbEntity
  8
INFTOTAL
  6
Continuous
 62
     9
370
    18
100
AcDbLine
 10
-59.40001100000001
 20
-48.882031077
 30
0.0
 11
96.79766479900002
 21
-48.882031077
 31
0.0
  0
LINE
  5
50A
330
1F
100
AcDbEntity
  8
INFTOTAL
  6
Continuous
 62
     9
370
    18
100
AcDbLine
 10
96.79766479900002
 20
-48.882031077
 30
0.0
 11
96.79766479900002
 21
70.95001100000002
 31
0.0
  0
LINE
  5
50B
330
1F
100
AcDbEntity
  8
INFTOTAL
  6
Continuous
 62
     9
370
    18
100
AcDbLine
 10
96.79766479900002
 20
70.95001100000002
 30
0.0
 11
-59.40001100000001
 21
70.95001100000002
 31
0.0
  0
LINE
  5
50C
330
1F
100
AcDbEntity
  8
INFTOTAL
  6
Continuous
 62
     9
370
    18
100
AcDbLine
 10
-59.40001100000001
 20
70.95001100000002
 30
0.0
 11
-59.40001100000001
 21
-48.88203107699999
 31
0.0
  0
ENDSEC
  0
SECTION
  2
OBJECTS
  0
DICTIONARY
  5
C
330
0
100
AcDbDictionary
281
     1
  3
ACAD_DETAILVIEWSTYLE
350
55E
  3
ACAD_GROUP
350
D
  3
ACAD_LAYOUT
350
1A
  3
ACAD_MATERIAL
350
3B
  3
ACAD_MLEADERSTYLE
350
539
  3
ACAD_MLINESTYLE
350
17
  3
ACAD_PLOTSETTINGS
350
19
  3
ACAD_PLOTSTYLENAME
350
545
  3
ACAD_SCALELIST
350
B4
  3
ACAD_SECTIONVIEWSTYLE
350
55F
  3
ACAD_TABLESTYLE
350
553
  3
ACAD_VISUALSTYLE
350
2A
  3
ACDB_RECOMPOSE_DATA
350
55A
  3
ACDBVARIABLEDICTIONARY
350
537
  3
APPDATA
350
556
  0
DICTIONARY
  5
55E
102
{ACAD_REACTORS
330
C
102
}
330
C
100
AcDbDictionary
281
     1
  0
DICTIONARY
  5
D
102
{ACAD_REACTORS
330
C
102
}
330
C
100
AcDbDictionary
281
     1
  0
DICTIONARY
  5
1A
102
{ACAD_REACTORS
330
C
102
}
330
C
100
AcDbDictionary
281
     1
  3
Blatt1
350
548
  3
Model
350
547
  0
DICTIONARY
  5
3B
102
{ACAD_REACTORS
330
C
102
}
330
C
100
AcDbDictionary
281
     1
  3
BYBLOCK
350
3D
  3
BYLAYER
350
3C
  3
GLOBAL
350
3E
  0
DICTIONARY
  5
539
102
{ACAD_REACTORS
330
C
102
}
330
C
100
AcDbDictionary
281
     1
  3
Standard
350
555
  0
DICTIONARY
  5
17
102
{ACAD_REACTORS
330
C
102
}
330
C
100
AcDbDictionary
281
     1
  3
STANDARD
350
18
  0
DICTIONARY
  5
19
102
{ACAD_REACTORS
330
C
102
}
330
C
100
AcDbDictionary
281
     1
  0
ACDBDICTIONARYWDFLT
  5
545
102
{ACAD_REACTORS
330
C
102
}
330
C
100
AcDbDictionary
281
     1
  3
Normal
350
546
100
AcDbDictionaryWithDefault
340
546
  0
DICTIONARY
  5
B4
102
{ACAD_REACTORS
330
C
102
}
330
C
100
AcDbDictionary
281
     1
  3
A0
350
B5
  3
A1
350
B6
  3
A2
350
B7
  3
A3
350
B8
  3
A4
350
B9
  3
A5
350
BA
  3
A6
350
BB
  3
A7
350
BC
  3
A8
350
BD
  3
A9
350
BE
  3
B0
350
BF
  3
B1
350
C0
  3
B2
350
C1
  3
B3
350
C2
  3
B4
350
C3
  3
B5
350
C4
  3
B6
350
C5
  3
B7
350
C6
  3
B8
350
C7
  3
B9
350
C8
  3
C0
350
C9
  3
C1
350
CA
  3
C2
350
CB
  3
C3
350
CC
  3
C4
350
CD
  3
C5
350
CE
  3
C6
350
CF
  3
C7
350
D0
  3
C8
350
D1
  3
C9
350
D2
  3
D0
350
D3
  3
D1
350
D4
  3
D2
350
D5
  0
DICTIONARY
  5
55F
102
{ACAD_REACTORS
330
C
102
}
330
C
100
AcDbDictionary
281
     1
  0
DICTIONARY
  5
553
102
{ACAD_REACTORS
330
C
102
}
330
C
100
AcDbDictionary
281
     1
  3
Standard
350
554
  0
DICTIONARY
  5
2A
102
{ACAD_REACTORS
330
C
102
}
330
C
100
AcDbDictionary
281
     1
  3
2DWIREFRAME
350
2F
  3
3D_HIDDEN
350
31
  3
3DWIREFRAME
350
30
  3
BASIC
350
32
  3
BRIGHTEN
350
36
  3
COLORCHANGE
350
3A
  3
CONCEPTUAL
350
34
  3
DIM
350
35
  3
EdgeColorOff
350
54D
  3
FACEPATTERN
350
39
  3
FLAT
350
2B
  3
FLATWITHEDGES
350
2C
  3
GOURAUD
350
2D
  3
GOURAUDWITHEDGES
350
2E
  3
Hidden
350
54A
  3
JitterOff
350
54B
  3
LINEPATTERN
350
38
  3
OverhangOff
350
54C
  3
REALISTIC
350
33
  3
Shaded
350
552
  3
Shaded with edges
350
551
  3
Shades of Gray
350
54E
  3
Sketchy
350
54F
  3
THICKEN
350
37
  3
Wireframe
350
549
  3
X-Ray
350
550
  0
XRECORD
  5
55A
102
{ACAD_REACTORS
330
C
102
}
330
C
100
AcDbXrecord
280
     1
 90
        1
330
554
  0
DICTIONARY
  5
537
102
{ACAD_REACTORS
330
C
102
}
330
C
100
AcDbDictionary
281
     1
  3
CANNOSCALE
350
557
  3
CMLEADERSTYLE
350
55C
  3
CTABLESTYLE
350
55B
  3
DIMASSOC
350
53D
  3
HIDETEXT
350
53E
  3
MSLTSCALE
350
55D
  0
DICTIONARY
  5
556
102
{ACAD_REACTORS
330
C
102
}
330
C
100
AcDbDictionary
281
     1
  0
LAYOUT
  5
548
102
{ACAD_REACTORS
330
1A
102
}
330
1A
100
AcDbPlotSettings
  1

  2
none_device
  4

  6

 40
0.0
 41
0.0
 42
0.0
 43
0.0
 44
0.0
 45
0.0
 46
0.0
 47
0.0
 48
0.0
 49
0.0
140
0.0
141
0.0
142
1.0
143
1.0
 70
   688
 72
     1
 73
     0
 74
     5
  7

 75
    16
 76
     0
 77
     2
 78
   300
147
1.0
148
0.0
149
0.0
100
AcDbLayout
  1
Blatt1
 70
     1
 71
     1
 10
0.0
 20
0.0
 11
0.0
 21
0.0
 12
0.0
 22
0.0
 32
0.0
 14
1.000000000000000E+20
 24
1.000000000000000E+20
 34
1.000000000000000E+20
 15
-1.000000000000000E+20
 25
-1.000000000000000E+20
 35
-1.000000000000000E+20
146
0.0
 13
0.0
 23
0.0
 33
0.0
 16
1.0
 26
0.0
 36
0.0
 17
0.0
 27
1.0
 37
0.0
 76
     0
330
1B
  0
LAYOUT
  5
547
102
{ACAD_REACTORS
330
1A
102
}
330
1A
100
AcDbPlotSettings
  1

  2
none_device
  4
Letter_(8.50_x_11.00_Inches)
  6

 40
6.35
 41
6.35
 42
6.35
 43
6.35
 44
215.9
 45
279.4
 46
0.0
 47
0.0
 48
0.0
 49
0.0
140
0.0
141
0.0
142
1.0
143
2.81625
 70
  1712
 72
     0
 73
     0
 74
     0
  7

 75
     0
 76
     0
 77
     2
 78
   300
147
0.3550821127385708
148
0.1269999999999747
149
0.0
100
AcDbLayout
  1
Model
 70
     1
 71
     0
 10
0.0
 20
0.0
 11
420.0
 21
297.0
 12
0.0
 22
0.0
 32
0.0
 14
-59.40001100000001
 24
-48.882031077
 34
0.0
 15
96.79766479900002
 25
70.95001100000002
 35
0.0
146
0.0
 13
0.0
 23
0.0
 33
0.0
 16
1.0
 26
0.0
 36
0.0
 17
0.0
 27
1.0
 37
0.0
 76
     0
330
1F
331
29
  0
MATERIAL
  5
3D
102
{ACAD_REACTORS
330
3B
102
}
330
3B
100
AcDbMaterial
  1
BYBLOCK
 72
     1
 94
      127
  0
MATERIAL
  5
3C
102
{ACAD_REACTORS
330
3B
102
}
330
3B
100
AcDbMaterial
  1
BYLAYER
 72
     1
 94
      127
  0
MATERIAL
  5
3E
102
{ACAD_REACTORS
330
3B
102
}
330
3B
100
AcDbMaterial
  1
GLOBAL
 72
     1
 94
      127
  0
MLEADERSTYLE
  5
555
102
{ACAD_REACTORS
330
539
102
}
330
539
100
AcDbMLeaderStyle
179
     2
170
     2
171
     1
172
     0
 90
        2
 40
0.0
 41
0.0
173
     1
 91
-1056964608
340
14
 92
       -2
290
     1
 42
2.0
291
     1
 43
8.0
  3
Standard
341
0
 44
4.0
300

342
11
174
     1
178
     1
175
     1
176
     0
 93
-1056964608
 45
4.0
292
     0
297
     0
 46
4.0
343
0
 94
-1056964608
 47
1.0
 49
1.0
140
1.0
293
     1
141
0.0
294
     1
177
     0
142
1.0
295
     0
296
     0
143
3.75
271
     0
272
     9
273
     9
298
     0
  0
MLINESTYLE
  5
18
102
{ACAD_REACTORS
330
17
102
}
330
17
100
AcDbMlineStyle
  2
Standard
 70
     0
  3

 62
   256
 51
90.0
 52
90.0
 71
     2
 49
0.5
 62
   256
  6
BYLAYER
 49
-0.5
 62
   256
  6
BYLAYER
  0
ACDBPLACEHOLDER
  5
546
102
{ACAD_REACTORS
330
545
102
}
330
545
  0
SCALE
  5
B5
102
{ACAD_REACTORS
330
B4
102
}
330
B4
100
AcDbScale
 70
     0
300
1:1
140
1.0
141
1.0
290
     1
  0
SCALE
  5
B6
102
{ACAD_REACTORS
330
B4
102
}
330
B4
100
AcDbScale
 70
     0
300
1:2
140
1.0
141
2.0
290
     0
  0
SCALE
  5
B7
102
{ACAD_REACTORS
330
B4
102
}
330
B4
100
AcDbScale
 70
     0
300
1:4
140
1.0
141
4.0
290
     0
  0
SCALE
  5
B8
102
{ACAD_REACTORS
330
B4
102
}
330
B4
100
AcDbScale
 70
     0
300
1:5
140
1.0
141
5.0
290
     0
  0
SCALE
  5
B9
102
{ACAD_REACTORS
330
B4
102
}
330
B4
100
AcDbScale
 70
     0
300
1:8
140
1.0
141
8.0
290
     0
  0
SCALE
  5
BA
102
{ACAD_REACTORS
330
B4
102
}
330
B4
100
AcDbScale
 70
     0
300
1:10
140
1.0
141
10.0
290
     0
  0
SCALE
  5
BB
102
{ACAD_REACTORS
330
B4
102
}
330
B4
100
AcDbScale
 70
     0
300
1:16
140
1.0
141
16.0
290
     0
  0
SCALE
  5
BC
102
{ACAD_REACTORS
330
B4
102
}
330
B4
100
AcDbScale
 70
     0
300
1:20
140
1.0
141
20.0
290
     0
  0
SCALE
  5
BD
102
{ACAD_REACTORS
330
B4
102
}
330
B4
100
AcDbScale
 70
     0
300
1:30
140
1.0
141
30.0
290
     0
  0
SCALE
  5
BE
102
{ACAD_REACTORS
330
B4
102
}
330
B4
100
AcDbScale
 70
     0
300
1:40
140
1.0
141
40.0
290
     0
  0
SCALE
  5
BF
102
{ACAD_REACTORS
330
B4
102
}
330
B4
100
AcDbScale
 70
     0
300
1:50
140
1.0
141
50.0
290
     0
  0
SCALE
  5
C0
102
{ACAD_REACTORS
330
B4
102
}
330
B4
100
AcDbScale
 70
     0
300
1:100
140
1.0
141
100.0
290
     0
  0
SCALE
  5
C1
102
{ACAD_REACTORS
330
B4
102
}
330
B4
100
AcDbScale
 70
     0
300
2:1
140
2.0
141
1.0
290
     0
  0
SCALE
  5
C2
102
{ACAD_REACTORS
330
B4
102
}
330
B4
100
AcDbScale
 70
     0
300
4:1
140
4.0
141
1.0
290
     0
  0
SCALE
  5
C3
102
{ACAD_REACTORS
330
B4
102
}
330
B4
100
AcDbScale
 70
     0
300
8:1
140
8.0
141
1.0
290
     0
  0
SCALE
  5
C4
102
{ACAD_REACTORS
330
B4
102
}
330
B4
100
AcDbScale
 70
     0
300
10:1
140
10.0
141
1.0
290
     0
  0
SCALE
  5
C5
102
{ACAD_REACTORS
330
B4
102
}
330
B4
100
AcDbScale
 70
     0
300
100:1
140
100.0
141
1.0
290
     0
  0
SCALE
  5
C6
102
{ACAD_REACTORS
330
B4
102
}
330
B4
100
AcDbScale
 70
     0
300
1/128" = 1'-0"
140
0.0078125
141
12.0
290
     0
  0
SCALE
  5
C7
102
{ACAD_REACTORS
330
B4
102
}
330
B4
100
AcDbScale
 70
     0
300
1/64" = 1'-0"
140
0.015625
141
12.0
290
     0
  0
SCALE
  5
C8
102
{ACAD_REACTORS
330
B4
102
}
330
B4
100
AcDbScale
 70
     0
300
1/32" = 1'-0"
140
0.03125
141
12.0
290
     0
  0
SCALE
  5
C9
102
{ACAD_REACTORS
330
B4
102
}
330
B4
100
AcDbScale
 70
     0
300
1/16" = 1'-0"
140
0.0625
141
12.0
290
     0
  0
SCALE
  5
CA
102
{ACAD_REACTORS
330
B4
102
}
330
B4
100
AcDbScale
 70
     0
300
3/32" = 1'-0"
140
0.09375
141
12.0
290
     0
  0
SCALE
  5
CB
102
{ACAD_REACTORS
330
B4
102
}
330
B4
100
AcDbScale
 70
     0
300
1/8" = 1'-0"
140
0.125
141
12.0
290
     0
  0
SCALE
  5
CC
102
{ACAD_REACTORS
330
B4
102
}
330
B4
100
AcDbScale
 70
     0
300
3/16" = 1'-0"
140
0.1875
141
12.0
290
     0
  0
SCALE
  5
CD
102
{ACAD_REACTORS
330
B4
102
}
330
B4
100
AcDbScale
 70
     0
300
1/4" = 1'-0"
140
0.25
141
12.0
290
     0
  0
SCALE
  5
CE
102
{ACAD_REACTORS
330
B4
102
}
330
B4
100
AcDbScale
 70
     0
300
3/8" = 1'-0"
140
0.375
141
12.0
290
     0
  0
SCALE
  5
CF
102
{ACAD_REACTORS
330
B4
102
}
330
B4
100
AcDbScale
 70
     0
300
1/2" = 1'-0"
140
0.5
141
12.0
290
     0
  0
SCALE
  5
D0
102
{ACAD_REACTORS
330
B4
102
}
330
B4
100
AcDbScale
 70
     0
300
3/4" = 1'-0"
140
0.75
141
12.0
290
     0
  0
SCALE
  5
D1
102
{ACAD_REACTORS
330
B4
102
}
330
B4
100
AcDbScale
 70
     0
300
1" = 1'-0"
140
1.0
141
12.0
290
     0
  0
SCALE
  5
D2
102
{ACAD_REACTORS
330
B4
102
}
330
B4
100
AcDbScale
 70
     0
300
1-1/2" = 1'-0"
140
1.5
141
12.0
290
     0
  0
SCALE
  5
D3
102
{ACAD_REACTORS
330
B4
102
}
330
B4
100
AcDbScale
 70
     0
300
3" = 1'-0"
140
3.0
141
12.0
290
     0
  0
SCALE
  5
D4
102
{ACAD_REACTORS
330
B4
102
}
330
B4
100
AcDbScale
 70
     0
300
6" = 1'-0"
140
6.0
141
12.0
290
     0
  0
SCALE
  5
D5
102
{ACAD_REACTORS
330
B4
102
}
330
B4
100
AcDbScale
 70
     0
300
1'-0" = 1'-0"
140
12.0
141
12.0
290
     0
  0
TABLESTYLE
  5
554
102
{ACAD_REACTORS
330
553
102
}
102
{ACAD_XDICTIONARY
360
558
102
}
330
553
100
AcDbTableStyle
  3
Standard
 70
     0
 71
     0
 40
0.06
 41
0.06
280
     0
281
     0
  7
STANDARD
140
4.5
170
     2
 62
     0
 63
   257
283
     0
 90
        4
 91
        0
  1

274
    -2
284
     1
 64
     0
275
    -2
285
     1
 65
     0
276
    -2
286
     1
 66
     0
277
    -2
287
     1
 67
     0
278
    -2
288
     1
 68
     0
279
    -2
289
     1
 69
     0
  7
STANDARD
140
6.0
170
     5
 62
     0
 63
   257
283
     0
 90
        4
 91
        0
  1

274
    -2
284
     1
 64
     0
275
    -2
285
     1
 65
     0
276
    -2
286
     1
 66
     0
277
    -2
287
     1
 67
     0
278
    -2
288
     1
 68
     0
279
    -2
289
     1
 69
     0
  7
STANDARD
140
4.5
170
     5
 62
     0
 63
   257
283
     0
 90
        4
 91
        0
  1

274
    -2
284
     1
 64
     0
275
    -2
285
     1
 65
     0
276
    -2
286
     1
 66
     0
277
    -2
287
     1
 67
     0
278
    -2
288
     1
 68
     0
279
    -2
289
     1
 69
     0
  0
VISUALSTYLE
  5
2F
102
{ACAD_REACTORS
330
2A
102
}
330
2A
100
AcDbVisualStyle
  2
2dWireframe
 70
     4
177
     3
291
     0
 70
    58
 90
        0
176
     1
 90
        2
176
     1
 90
        0
176
     1
 90
        0
176
     1
 40
-0.6
176
     1
 40
-30.0
176
     1
 62
     7
176
     1
 90
        1
176
     1
 90
        4
176
     1
 62
     7
176
     1
 62
   257
176
     1
 90
        1
176
     1
 90
        1
176
     1
 40
1.0
176
     1
 90
        0
176
     1
 62
   257
176
     1
 40
1.0
176
     1
 90
        1
176
     1
 90
        6
176
     1
 90
        2
176
     1
 62
     7
176
     1
 90
        5
176
     1
 90
        0
176
     1
 90
        0
176
     1
290
     0
176
     1
 90
        1
176
     1
 40
0.0
176
     1
 90
        0
176
     1
290
     1
176
     1
290
     1
176
     1
290
     0
176
     1
290
     0
176
     1
290
     0
176
     1
290
     0
176
     1
290
     0
176
     1
290
     0
176
     1
290
     0
176
     1
 90
       50
176
     1
 40
0.0
176
     1
 40
1.0
176
     1
 90
        0
176
     1
 62
    18
420
        0
176
     1
 90
       50
176
     1
 90
        3
176
     1
 62
     5
420
      255
176
     1
290
     0
176
     1
 90
       50
176
     1
 90
       50
176
     1
 90
       50
176
     1
290
     0
176
     1
 90
       50
176
     1
 62
   256
176
     0
 40
1.0
176
     0
 90
        2
176
     1
  1
strokes_ogs.tif
176
     1
290
     0
176
     1
 40
1.0
176
     1
 40
1.0
176
     1
  0
VISUALSTYLE
  5
31
102
{ACAD_REACTORS
330
2A
102
}
330
2A
100
AcDbVisualStyle
  2
3D Hidden
 70
     6
177
     3
291
     0
 70
    58
 90
        1
176
     1
 90
        2
176
     1
 90
        2
176
     1
 90
        0
176
     1
 40
-0.6
176
     1
 40
-30.0
176
     1
 62
     7
176
     1
 90
        2
176
     1
 90
        2
176
     1
 62
     7
176
     1
 62
   257
176
     1
 90
        2
176
     1
 90
        1
176
     1
 40
40.0
176
     1
 90
        0
176
     1
 62
   257
176
     1
 40
1.0
176
     1
 90
        1
176
     1
 90
        6
176
     1
 90
        2
176
     1
 62
     7
176
     1
 90
        3
176
     1
 90
        0
176
     1
 90
        0
176
     1
290
     0
176
     1
 90
        1
176
     1
 40
0.0
176
     1
 90
        0
176
     1
290
     0
176
     1
290
     1
176
     1
290
     1
176
     1
290
     0
176
     1
290
     0
176
     1
290
     0
176
     1
290
     0
176
     1
290
     0
176
     1
290
     0
176
     1
 90
       50
176
     1
 40
0.0
176
     1
 40
1.0
176
     1
 90
        0
176
     1
 62
    18
420
        0
176
     1
 90
       50
176
     1
 90
        3
176
     1
 62
     5
420
      255
176
     1
290
     0
176
     1
 90
       50
176
     1
 90
       50
176
     1
 90
       50
176
     1
290
     0
176
     1
 90
       50
176
     1
 62
   256
176
     0
 40
1.0
176
     0
 90
        2
176
     1
  1
strokes_ogs.tif
176
     1
290
     0
176
     1
 40
1.0
176
     1
 40
1.0
176
     1
  0
VISUALSTYLE
  5
30
102
{ACAD_REACTORS
330
2A
102
}
330
2A
100
AcDbVisualStyle
  2
3dWireframe
 70
     5
177
     3
291
     0
 70
    58
 90
        0
176
     1
 90
        2
176
     1
 90
        0
176
     1
 90
        0
176
     1
 40
-0.6
176
     1
 40
-30.0
176
     1
 62
     7
176
     1
 90
        1
176
     1
 90
        4
176
     1
 62
     7
176
     1
 62
   257
176
     1
 90
        1
176
     1
 90
        1
176
     1
 40
1.0
176
     1
 90
        0
176
     1
 62
   257
176
     1
 40
1.0
176
     1
 90
        1
176
     1
 90
        6
176
     1
 90
        2
176
     1
 62
     7
176
     1
 90
        5
176
     1
 90
        0
176
     1
 90
        0
176
     1
290
     0
176
     1
 90
        1
176
     1
 40
0.0
176
     1
 90
        0
176
     1
290
     0
176
     1
290
     1
176
     1
290
     1
176
     1
290
     0
176
     1
290
     0
176
     1
290
     0
176
     1
290
     0
176
     1
290
     0
176
     1
290
     0
176
     1
 90
       50
176
     1
 40
0.0
176
     1
 40
1.0
176
     1
 90
        0
176
     1
 62
    18
420
        0
176
     1
 90
       50
176
     1
 90
        3
176
     1
 62
     5
420
      255
176
     1
290
     0
176
     1
 90
       50
176
     1
 90
       50
176
     1
 90
       50
176
     1
290
     0
176
     1
 90
       50
176
     1
 62
   256
176
     0
 40
1.0
176
     0
 90
        2
176
     1
  1
strokes_ogs.tif
176
     1
290
     0
176
     1
 40
1.0
176
     1
 40
1.0
176
     1
  0
VISUALSTYLE
  5
32
102
{ACAD_REACTORS
330
2A
102
}
330
2A
100
AcDbVisualStyle
  2
Basic
 70
     7
177
     3
291
     1
 70
    58
 90
        1
176
     1
 90
        0
176
     1
 90
        1
176
     1
 90
        0
176
     1
 40
-0.6
176
     1
 40
-30.0
176
     1
 62
     7
176
     1
 90
        0
176
     1
 90
        4
176
     1
 62
     7
176
     1
 62
   257
176
     1
 90
        1
176
     1
 90
        1
176
     1
 40
1.0
176
     1
 90
        8
176
     1
 62
     7
176
     1
 40
1.0
176
     1
 90
        1
176
     1
 90
        6
176
     1
 90
        2
176
     1
 62
     7
176
     1
 90
        5
176
     1
 90
        0
176
     1
 90
        0
176
     1
290
     0
176
     1
 90
        1
176
     1
 40
0.0
176
     1
 90
        0
176
     1
290
     0
176
     1
290
     1
176
     1
290
     1
176
     1
290
     0
176
     1
290
     0
176
     1
290
     0
176
     1
290
     0
176
     1
290
     0
176
     1
290
     0
176
     1
 90
       50
176
     1
 40
0.0
176
     1
 40
1.0
176
     1
 90
        0
176
     1
 62
    18
420
        0
176
     1
 90
       50
176
     1
 90
        3
176
     1
 62
     5
420
      255
176
     1
290
     0
176
     1
 90
       50
176
     1
 90
       50
176
     1
 90
       50
176
     1
290
     0
176
     1
 90
       50
176
     1
 62
   256
176
     0
 40
1.0
176
     0
 90
        2
176
     1
  1
strokes_ogs.tif
176
     1
290
     0
176
     1
 40
1.0
176
     1
 40
1.0
176
     1
  0
VISUALSTYLE
  5
36
102
{ACAD_REACTORS
330
2A
102
}
330
2A
100
AcDbVisualStyle
  2
Brighten
 70
    12
177
     3
291
     1
 70
    58
 90
        2
176
     1
 90
        2
176
     1
 90
        0
176
     1
 90
        0
176
     1
 40
-0.6
176
     1
 40
-30.0
176
     1
 62
     7
176
     1
 90
        1
176
     1
 90
        4
176
     1
 62
     7
176
     1
 62
   257
176
     1
 90
        1
176
     1
 90
        1
176
     1
 40
1.0
176
     1
 90
        8
176
     1
 62
     7
176
     1
 40
1.0
176
     1
 90
        1
176
     1
 90
        6
176
     1
 90
        2
176
     1
 62
     7
176
     1
 90
        5
176
     1
 90
        0
176
     1
 90
        0
176
     1
290
     0
176
     1
 90
        1
176
     1
 40
50.0
176
     1
 90
        0
176
     1
290
     0
176
     1
290
     1
176
     1
290
     1
176
     1
290
     0
176
     1
290
     0
176
     1
290
     0
176
     1
290
     0
176
     1
290
     0
176
     1
290
     0
176
     1
 90
       50
176
     1
 40
0.0
176
     1
 40
1.0
176
     1
 90
        0
176
     1
 62
    18
420
        0
176
     1
 90
       50
176
     1
 90
        3
176
     1
 62
     5
420
      255
176
     1
290
     0
176
     1
 90
       50
176
     1
 90
       50
176
     1
 90
       50
176
     1
290
     0
176
     1
 90
       50
176
     1
 62
   256
176
     0
 40
1.0
176
     0
 90
        2
176
     1
  1
strokes_ogs.tif
176
     1
290
     0
176
     1
 40
1.0
176
     1
 40
1.0
176
     1
  0
VISUALSTYLE
  5
3A
102
{ACAD_REACTORS
330
2A
102
}
330
2A
100
AcDbVisualStyle
  2
ColorChange
 70
    16
177
     3
291
     1
 70
    58
 90
        2
176
     1
 90
        2
176
     1
 90
        3
176
     1
 90
        0
176
     1
 40
-0.6
176
     1
 40
-30.0
176
     1
 62
     8
176
     1
 90
        1
176
     1
 90
        4
176
     1
 62
     7
176
     1
 62
   257
176
     1
 90
        1
176
     1
 90
        1
176
     1
 40
1.0
176
     1
 90
        8
176
     1
 62
     8
176
     1
 40
1.0
176
     1
 90
        1
176
     1
 90
        6
176
     1
 90
        2
176
     1
 62
     7
176
     1
 90
        5
176
     1
 90
        0
176
     1
 90
        0
176
     1
290
     0
176
     1
 90
        1
176
     1
 40
0.0
176
     1
 90
        0
176
     1
290
     0
176
     1
290
     1
176
     1
290
     1
176
     1
290
     0
176
     1
290
     0
176
     1
290
     0
176
     1
290
     0
176
     1
290
     0
176
     1
290
     0
176
     1
 90
       50
176
     1
 40
0.0
176
     1
 40
1.0
176
     1
 90
        0
176
     1
 62
    18
420
        0
176
     1
 90
       50
176
     1
 90
        3
176
     1
 62
     5
420
      255
176
     1
290
     0
176
     1
 90
       50
176
     1
 90
       50
176
     1
 90
       50
176
     1
290
     0
176
     1
 90
       50
176
     1
 62
   256
176
     0
 40
1.0
176
     0
 90
        2
176
     1
  1
strokes_ogs.tif
176
     1
290
     0
176
     1
 40
1.0
176
     1
 40
1.0
176
     1
  0
VISUALSTYLE
  5
34
102
{ACAD_REACTORS
330
2A
102
}
330
2A
100
AcDbVisualStyle
  2
Conceptual
 70
     9
177
     3
291
     0
 70
    58
 90
        3
176
     1
 90
        2
176
     1
 90
        0
176
     1
 90
        0
176
     1
 40
-0.6
176
     1
 40
-30.0
176
     1
 62
     7
176
     1
 90
        2
176
     1
 90
        2
176
     1
 62
     7
176
     1
 62
   257
176
     1
 90
        1
176
     1
 90
        1
176
     1
 40
40.0
176
     1
 90
        8
176
     1
 62
     7
176
     1
 40
1.0
176
     1
 90
        1
176
     1
 90
        6
176
     1
 90
        2
176
     1
 62
     7
176
     1
 90
        3
176
     1
 90
        0
176
     1
 90
        0
176
     1
290
     0
176
     1
 90
        1
176
     1
 40
0.0
176
     1
 90
        0
176
     1
290
     0
176
     1
290
     1
176
     1
290
     1
176
     1
290
     0
176
     1
290
     0
176
     1
290
     0
176
     1
290
     0
176
     1
290
     0
176
     1
290
     0
176
     1
 90
       50
176
     1
 40
0.0
176
     1
 40
1.0
176
     1
 90
        0
176
     1
 62
    18
420
        0
176
     1
 90
       50
176
     1
 90
        3
176
     1
 62
     5
420
      255
176
     1
290
     0
176
     1
 90
       50
176
     1
 90
       50
176
     1
 90
       50
176
     1
290
     0
176
     1
 90
       50
176
     1
 62
   256
176
     0
 40
1.0
176
     0
 90
        2
176
     1
  1
strokes_ogs.tif
176
     1
290
     0
176
     1
 40
1.0
176
     1
 40
1.0
176
     1
  0
VISUALSTYLE
  5
35
102
{ACAD_REACTORS
330
2A
102
}
330
2A
100
AcDbVisualStyle
  2
Dim
 70
    11
177
     3
291
     1
 70
    58
 90
        2
176
     1
 90
        2
176
     1
 90
        0
176
     1
 90
        0
176
     1
 40
-0.6
176
     1
 40
-30.0
176
     1
 62
     7
176
     1
 90
        1
176
     1
 90
        4
176
     1
 62
     7
176
     1
 62
   257
176
     1
 90
        1
176
     1
 90
        1
176
     1
 40
1.0
176
     1
 90
        8
176
     1
 62
     7
176
     1
 40
1.0
176
     1
 90
        1
176
     1
 90
        6
176
     1
 90
        2
176
     1
 62
     7
176
     1
 90
        5
176
     1
 90
        0
176
     1
 90
        0
176
     1
290
     0
176
     1
 90
        1
176
     1
 40
-50.0
176
     1
 90
        0
176
     1
290
     0
176
     1
290
     1
176
     1
290
     1
176
     1
290
     0
176
     1
290
     0
176
     1
290
     0
176
     1
290
     0
176
     1
290
     0
176
     1
290
     0
176
     1
 90
       50
176
     1
 40
0.0
176
     1
 40
1.0
176
     1
 90
        0
176
     1
 62
    18
420
        0
176
     1
 90
       50
176
     1
 90
        3
176
     1
 62
     5
420
      255
176
     1
290
     0
176
     1
 90
       50
176
     1
 90
       50
176
     1
 90
       50
176
     1
290
     0
176
     1
 90
       50
176
     1
 62
   256
176
     0
 40
1.0
176
     0
 90
        2
176
     1
  1
strokes_ogs.tif
176
     1
290
     0
176
     1
 40
1.0
176
     1
 40
1.0
176
     1
  0
VISUALSTYLE
  5
54D
102
{ACAD_REACTORS
330
2A
102
}
330
2A
100
AcDbVisualStyle
  2
EdgeColorOff
 70
    22
177
     3
291
     1
 70
    58
 90
        2
176
     0
 90
        2
176
     0
 90
        0
176
     0
 90
        0
176
     0
 40
0.6
176
     0
 40
30.0
176
     0
 62
     7
420
 16777215
176
     0
 90
        1
176
     0
 90
        4
176
     0
 62
     7
176
     0
 62
   257
176
     0
 90
        1
176
     0
 90
        1
176
     0
 40
1.0
176
     0
 90
        8
176
     2
 62
     7
176
     0
 40
1.0
176
     0
 90
        1
176
     0
 90
        6
176
     0
 90
        2
176
     0
 62
     7
176
     0
 90
        5
176
     0
 90
        0
176
     0
 90
        0
176
     0
290
     0
176
     0
 90
        1
176
     0
 40
0.0
176
     0
 90
        0
176
     0
290
     0
176
     0
290
     1
176
     0
290
     1
176
     0
290
     0
176
     0
290
     0
176
     0
290
     0
176
     0
290
     0
176
     0
290
     0
176
     0
290
     0
176
     0
 90
       50
176
     0
 40
0.0
176
     0
 40
1.0
176
     0
 90
        0
176
     0
 62
    18
420
        0
176
     0
 90
       50
176
     0
 90
        3
176
     0
 62
     5
420
      255
176
     0
290
     0
176
     0
 90
       50
176
     0
 90
       50
176
     0
 90
       50
176
     0
290
     0
176
     0
 90
       50
176
     0
 62
   256
176
     0
 40
1.0
176
     0
 90
        2
176
     0
  1
strokes_ogs.tif
176
     0
290
     0
176
     0
 40
1.0
176
     0
 40
1.0
176
     0
  0
VISUALSTYLE
  5
39
102
{ACAD_REACTORS
330
2A
102
}
330
2A
100
AcDbVisualStyle
  2
Facepattern
 70
    15
177
     3
291
     1
 70
    58
 90
        2
176
     1
 90
        2
176
     1
 90
        0
176
     1
 90
        0
176
     1
 40
-0.6
176
     1
 40
-30.0
176
     1
 62
     7
176
     1
 90
        1
176
     1
 90
        4
176
     1
 62
     7
176
     1
 62
   257
176
     1
 90
        1
176
     1
 90
        1
176
     1
 40
1.0
176
     1
 90
        8
176
     1
 62
     7
176
     1
 40
1.0
176
     1
 90
        1
176
     1
 90
        6
176
     1
 90
        2
176
     1
 62
     7
176
     1
 90
        5
176
     1
 90
        0
176
     1
 90
        0
176
     1
290
     0
176
     1
 90
        1
176
     1
 40
0.0
176
     1
 90
        0
176
     1
290
     0
176
     1
290
     1
176
     1
290
     1
176
     1
290
     0
176
     1
290
     0
176
     1
290
     0
176
     1
290
     0
176
     1
290
     0
176
     1
290
     0
176
     1
 90
       50
176
     1
 40
0.0
176
     1
 40
1.0
176
     1
 90
        0
176
     1
 62
    18
420
        0
176
     1
 90
       50
176
     1
 90
        3
176
     1
 62
     5
420
      255
176
     1
290
     0
176
     1
 90
       50
176
     1
 90
       50
176
     1
 90
       50
176
     1
290
     0
176
     1
 90
       50
176
     1
 62
   256
176
     0
 40
1.0
176
     0
 90
        2
176
     1
  1
strokes_ogs.tif
176
     1
290
     0
176
     1
 40
1.0
176
     1
 40
1.0
176
     1
  0
VISUALSTYLE
  5
2B
102
{ACAD_REACTORS
330
2A
102
}
330
2A
100
AcDbVisualStyle
  2
Flat
 70
     0
177
     3
291
     1
 70
    58
 90
        2
176
     1
 90
        1
176
     1
 90
        1
176
     1
 90
        2
176
     1
 40
-0.6
176
     1
 40
30.0
176
     1
 62
     7
176
     1
 90
        0
176
     1
 90
        4
176
     1
 62
     7
176
     1
 62
   257
176
     1
 90
        1
176
     1
 90
        1
176
     1
 40
1.0
176
     1
 90
        8
176
     1
 62
     7
176
     1
 40
1.0
176
     1
 90
        1
176
     1
 90
        6
176
     1
 90
        2
176
     1
 62
     7
176
     1
 90
        5
176
     1
 90
        0
176
     1
 90
        0
176
     1
290
     0
176
     1
 90
       13
176
     1
 40
0.0
176
     1
 90
        0
176
     1
290
     0
176
     1
290
     1
176
     1
290
     1
176
     1
290
     0
176
     1
290
     0
176
     1
290
     0
176
     1
290
     0
176
     1
290
     0
176
     1
290
     0
176
     1
 90
       50
176
     1
 40
0.0
176
     1
 40
1.0
176
     1
 90
        0
176
     1
 62
    18
420
        0
176
     1
 90
       50
176
     1
 90
        3
176
     1
 62
     5
420
      255
176
     1
290
     0
176
     1
 90
       50
176
     1
 90
       50
176
     1
 90
       50
176
     1
290
     0
176
     1
 90
       50
176
     1
 62
   256
176
     0
 40
1.0
176
     0
 90
        2
176
     1
  1
strokes_ogs.tif
176
     1
290
     0
176
     1
 40
1.0
176
     1
 40
1.0
176
     1
  0
VISUALSTYLE
  5
2C
102
{ACAD_REACTORS
330
2A
102
}
330
2A
100
AcDbVisualStyle
  2
FlatWithEdges
 70
     1
177
     3
291
     1
 70
    58
 90
        2
176
     1
 90
        1
176
     1
 90
        1
176
     1
 90
        2
176
     1
 40
-0.6
176
     1
 40
30.0
176
     1
 62
     7
176
     1
 90
        1
176
     1
 90
        4
176
     1
 62
     7
176
     1
 62
   257
176
     1
 90
        1
176
     1
 90
        1
176
     1
 40
1.0
176
     1
 90
        0
176
     1
 62
   257
176
     1
 40
1.0
176
     1
 90
        1
176
     1
 90
        6
176
     1
 90
        2
176
     1
 62
     7
176
     1
 90
        5
176
     1
 90
        0
176
     1
 90
        0
176
     1
290
     0
176
     1
 90
       13
176
     1
 40
0.0
176
     1
 90
        0
176
     1
290
     0
176
     1
290
     1
176
     1
290
     1
176
     1
290
     0
176
     1
290
     0
176
     1
290
     0
176
     1
290
     0
176
     1
290
     0
176
     1
290
     0
176
     1
 90
       50
176
     1
 40
0.0
176
     1
 40
1.0
176
     1
 90
        0
176
     1
 62
    18
420
        0
176
     1
 90
       50
176
     1
 90
        3
176
     1
 62
     5
420
      255
176
     1
290
     0
176
     1
 90
       50
176
     1
 90
       50
176
     1
 90
       50
176
     1
290
     0
176
     1
 90
       50
176
     1
 62
   256
176
     0
 40
1.0
176
     0
 90
        2
176
     1
  1
strokes_ogs.tif
176
     1
290
     0
176
     1
 40
1.0
176
     1
 40
1.0
176
     1
  0
VISUALSTYLE
  5
2D
102
{ACAD_REACTORS
330
2A
102
}
330
2A
100
AcDbVisualStyle
  2
Gouraud
 70
     2
177
     3
291
     1
 70
    58
 90
        2
176
     1
 90
        2
176
     1
 90
        1
176
     1
 90
        2
176
     1
 40
-0.6
176
     1
 40
30.0
176
     1
 62
     7
176
     1
 90
        0
176
     1
 90
        4
176
     1
 62
     7
176
     1
 62
   257
176
     1
 90
        1
176
     1
 90
        1
176
     1
 40
1.0
176
     1
 90
        0
176
     1
 62
     7
176
     1
 40
1.0
176
     1
 90
        1
176
     1
 90
        6
176
     1
 90
        2
176
     1
 62
     7
176
     1
 90
        5
176
     1
 90
        0
176
     1
 90
        0
176
     1
290
     0
176
     1
 90
       13
176
     1
 40
0.0
176
     1
 90
        0
176
     1
290
     0
176
     1
290
     1
176
     1
290
     1
176
     1
290
     0
176
     1
290
     0
176
     1
290
     0
176
     1
290
     0
176
     1
290
     0
176
     1
290
     0
176
     1
 90
       50
176
     1
 40
0.0
176
     1
 40
1.0
176
     1
 90
        0
176
     1
 62
    18
420
        0
176
     1
 90
       50
176
     1
 90
        3
176
     1
 62
     5
420
      255
176
     1
290
     0
176
     1
 90
       50
176
     1
 90
       50
176
     1
 90
       50
176
     1
290
     0
176
     1
 90
       50
176
     1
 62
   256
176
     0
 40
1.0
176
     0
 90
        2
176
     1
  1
strokes_ogs.tif
176
     1
290
     0
176
     1
 40
1.0
176
     1
 40
1.0
176
     1
  0
VISUALSTYLE
  5
2E
102
{ACAD_REACTORS
330
2A
102
}
330
2A
100
AcDbVisualStyle
  2
GouraudWithEdges
 70
     3
177
     3
291
     1
 70
    58
 90
        2
176
     1
 90
        2
176
     1
 90
        1
176
     1
 90
        2
176
     1
 40
-0.6
176
     1
 40
30.0
176
     1
 62
     7
176
     1
 90
        1
176
     1
 90
        4
176
     1
 62
     7
176
     1
 62
   257
176
     1
 90
        1
176
     1
 90
        1
176
     1
 40
1.0
176
     1
 90
        0
176
     1
 62
   257
176
     1
 40
1.0
176
     1
 90
        1
176
     1
 90
        6
176
     1
 90
        2
176
     1
 62
     7
176
     1
 90
        5
176
     1
 90
        0
176
     1
 90
        0
176
     1
290
     0
176
     1
 90
       13
176
     1
 40
0.0
176
     1
 90
        0
176
     1
290
     0
176
     1
290
     1
176
     1
290
     1
176
     1
290
     0
176
     1
290
     0
176
     1
290
     0
176
     1
290
     0
176
     1
290
     0
176
     1
290
     0
176
     1
 90
       50
176
     1
 40
0.0
176
     1
 40
1.0
176
     1
 90
        0
176
     1
 62
    18
420
        0
176
     1
 90
       50
176
     1
 90
        3
176
     1
 62
     5
420
      255
176
     1
290
     0
176
     1
 90
       50
176
     1
 90
       50
176
     1
 90
       50
176
     1
290
     0
176
     1
 90
       50
176
     1
 62
   256
176
     0
 40
1.0
176
     0
 90
        2
176
     1
  1
strokes_ogs.tif
176
     1
290
     0
176
     1
 40
1.0
176
     1
 40
1.0
176
     1
  0
VISUALSTYLE
  5
54A
102
{ACAD_REACTORS
330
2A
102
}
330
2A
100
AcDbVisualStyle
  2
Hidden
 70
     6
177
     3
291
     0
 70
    58
 90
        1
176
     1
 90
        2
176
     1
 90
        2
176
     1
 90
        0
176
     1
 40
0.6
176
     1
 40
30.0
176
     1
 62
     7
420
 16777215
176
     1
 90
        2
176
     1
 90
        2
176
     1
 62
     7
176
     1
 62
   257
176
     1
 90
        2
176
     1
 90
        1
176
     1
 40
40.0
176
     1
 90
        0
176
     1
 62
   257
176
     1
 40
1.0
176
     1
 90
        1
176
     1
 90
        6
176
     1
 90
        2
176
     1
 62
     7
176
     1
 90
        3
176
     1
 90
        0
176
     1
 90
        0
176
     1
290
     0
176
     1
 90
        1
176
     1
 40
0.0
176
     1
 90
        0
176
     1
290
     0
176
     1
290
     1
176
     1
290
     1
176
     1
290
     0
176
     1
290
     0
176
     1
290
     0
176
     1
290
     0
176
     1
290
     0
176
     1
290
     0
176
     1
 90
       50
176
     1
 40
0.0
176
     1
 40
1.0
176
     1
 90
        0
176
     1
 62
    18
420
        0
176
     1
 90
       50
176
     1
 90
        3
176
     1
 62
     5
420
      255
176
     1
290
     0
176
     1
 90
       50
176
     1
 90
       50
176
     1
 90
       50
176
     1
290
     0
176
     1
 90
       50
176
     1
 62
   256
176
     0
 40
1.0
176
     0
 90
        2
176
     1
  1
strokes_ogs.tif
176
     1
290
     0
176
     1
 40
1.0
176
     1
 40
1.0
176
     1
  0
VISUALSTYLE
  5
54B
102
{ACAD_REACTORS
330
2A
102
}
330
2A
100
AcDbVisualStyle
  2
JitterOff
 70
    20
177
     3
291
     1
 70
    58
 90
        2
176
     0
 90
        2
176
     0
 90
        0
176
     0
 90
        0
176
     0
 40
0.6
176
     0
 40
30.0
176
     0
 62
     7
420
 16777215
176
     0
 90
        1
176
     0
 90
        4
176
     0
 62
     7
176
     0
 62
   257
176
     0
 90
        1
176
     0
 90
        1
176
     0
 40
1.0
176
     0
 90
       10
176
     2
 62
     7
176
     0
 40
1.0
176
     0
 90
        1
176
     0
 90
        6
176
     0
 90
        2
176
     0
 62
     7
176
     0
 90
        5
176
     0
 90
        0
176
     0
 90
        0
176
     0
290
     0
176
     0
 90
        1
176
     0
 40
0.0
176
     0
 90
        0
176
     0
290
     0
176
     0
290
     1
176
     0
290
     1
176
     0
290
     0
176
     0
290
     0
176
     0
290
     0
176
     0
290
     0
176
     0
290
     0
176
     0
290
     0
176
     0
 90
       50
176
     0
 40
0.0
176
     0
 40
1.0
176
     0
 90
        0
176
     0
 62
    18
420
        0
176
     0
 90
       50
176
     0
 90
        3
176
     0
 62
     5
420
      255
176
     0
290
     0
176
     0
 90
       50
176
     0
 90
       50
176
     0
 90
       50
176
     0
290
     0
176
     0
 90
       50
176
     0
 62
   256
176
     0
 40
1.0
176
     0
 90
        2
176
     0
  1
strokes_ogs.tif
176
     0
290
     0
176
     0
 40
1.0
176
     0
 40
1.0
176
     0
  0
VISUALSTYLE
  5
38
102
{ACAD_REACTORS
330
2A
102
}
330
2A
100
AcDbVisualStyle
  2
Linepattern
 70
    14
177
     3
291
     1
 70
    58
 90
        2
176
     1
 90
        2
176
     1
 90
        0
176
     1
 90
        0
176
     1
 40
-0.6
176
     1
 40
-30.0
176
     1
 62
     7
176
     1
 90
        1
176
     1
 90
        4
176
     1
 62
     7
176
     1
 62
   257
176
     1
 90
        7
176
     1
 90
        7
176
     1
 40
1.0
176
     1
 90
        8
176
     1
 62
     7
176
     1
 40
1.0
176
     1
 90
        1
176
     1
 90
        6
176
     1
 90
        2
176
     1
 62
     7
176
     1
 90
        5
176
     1
 90
        0
176
     1
 90
        0
176
     1
290
     0
176
     1
 90
        1
176
     1
 40
0.0
176
     1
 90
        0
176
     1
290
     0
176
     1
290
     1
176
     1
290
     1
176
     1
290
     0
176
     1
290
     0
176
     1
290
     0
176
     1
290
     0
176
     1
290
     0
176
     1
290
     0
176
     1
 90
       50
176
     1
 40
0.0
176
     1
 40
1.0
176
     1
 90
        0
176
     1
 62
    18
420
        0
176
     1
 90
       50
176
     1
 90
        3
176
     1
 62
     5
420
      255
176
     1
290
     0
176
     1
 90
       50
176
     1
 90
       50
176
     1
 90
       50
176
     1
290
     0
176
     1
 90
       50
176
     1
 62
   256
176
     0
 40
1.0
176
     0
 90
        2
176
     1
  1
strokes_ogs.tif
176
     1
290
     0
176
     1
 40
1.0
176
     1
 40
1.0
176
     1
  0
VISUALSTYLE
  5
54C
102
{ACAD_REACTORS
330
2A
102
}
330
2A
100
AcDbVisualStyle
  2
OverhangOff
 70
    21
177
     3
291
     1
 70
    58
 90
        2
176
     0
 90
        2
176
     0
 90
        0
176
     0
 90
        0
176
     0
 40
0.6
176
     0
 40
30.0
176
     0
 62
     7
420
 16777215
176
     0
 90
        1
176
     0
 90
        4
176
     0
 62
     7
176
     0
 62
   257
176
     0
 90
        1
176
     0
 90
        1
176
     0
 40
1.0
176
     0
 90
        9
176
     2
 62
     7
176
     0
 40
1.0
176
     0
 90
        1
176
     0
 90
        6
176
     0
 90
        2
176
     0
 62
     7
176
     0
 90
        5
176
     0
 90
        0
176
     0
 90
        0
176
     0
290
     0
176
     0
 90
        1
176
     0
 40
0.0
176
     0
 90
        0
176
     0
290
     0
176
     0
290
     1
176
     0
290
     1
176
     0
290
     0
176
     0
290
     0
176
     0
290
     0
176
     0
290
     0
176
     0
290
     0
176
     0
290
     0
176
     0
 90
       50
176
     0
 40
0.0
176
     0
 40
1.0
176
     0
 90
        0
176
     0
 62
    18
420
        0
176
     0
 90
       50
176
     0
 90
        3
176
     0
 62
     5
420
      255
176
     0
290
     0
176
     0
 90
       50
176
     0
 90
       50
176
     0
 90
       50
176
     0
290
     0
176
     0
 90
       50
176
     0
 62
   256
176
     0
 40
1.0
176
     0
 90
        2
176
     0
  1
strokes_ogs.tif
176
     0
290
     0
176
     0
 40
1.0
176
     0
 40
1.0
176
     0
  0
VISUALSTYLE
  5
33
102
{ACAD_REACTORS
330
2A
102
}
330
2A
100
AcDbVisualStyle
  2
Realistic
 70
     8
177
     3
291
     0
 70
    58
 90
        2
176
     1
 90
        2
176
     1
 90
        0
176
     1
 90
        0
176
     1
 40
-0.6
176
     1
 40
-30.0
176
     1
 62
     7
176
     1
 90
        1
176
     1
 90
        0
176
     1
 62
     7
176
     1
 62
   257
176
     1
 90
        1
176
     1
 90
        1
176
     1
 40
1.0
176
     1
 90
        8
176
     1
 62
     8
176
     1
 40
1.0
176
     1
 90
        1
176
     1
 90
        6
176
     1
 90
        2
176
     1
 62
     7
176
     1
 90
        5
176
     1
 90
        0
176
     1
 90
        0
176
     1
290
     0
176
     1
 90
       13
176
     1
 40
0.0
176
     1
 90
        0
176
     1
290
     0
176
     1
290
     1
176
     1
290
     1
176
     1
290
     0
176
     1
290
     0
176
     1
290
     0
176
     1
290
     0
176
     1
290
     0
176
     1
290
     0
176
     1
 90
       50
176
     1
 40
0.0
176
     1
 40
1.0
176
     1
 90
        0
176
     1
 62
    18
420
        0
176
     1
 90
       50
176
     1
 90
        3
176
     1
 62
     5
420
      255
176
     1
290
     0
176
     1
 90
       50
176
     1
 90
       50
176
     1
 90
       50
176
     1
290
     0
176
     1
 90
       50
176
     1
 62
   256
176
     0
 40
1.0
176
     0
 90
        2
176
     1
  1
strokes_ogs.tif
176
     1
290
     0
176
     1
 40
1.0
176
     1
 40
1.0
176
     1
  0
VISUALSTYLE
  5
552
102
{ACAD_REACTORS
330
2A
102
}
330
2A
100
AcDbVisualStyle
  2
Shaded
 70
    27
177
     3
291
     0
 70
    58
 90
        2
176
     1
 90
        2
176
     1
 90
        1
176
     1
 90
        2
176
     1
 40
0.6
176
     1
 40
30.0
176
     1
 62
     7
420
 16777215
176
     1
 90
        0
176
     1
 90
        4
176
     1
 62
     7
176
     1
 62
   257
176
     1
 90
        1
176
     1
 90
        1
176
     1
 40
1.0
176
     1
 90
        8
176
     1
 62
   257
176
     1
 40
1.0
176
     1
 90
        1
176
     1
 90
        6
176
     1
 90
        2
176
     1
 62
     8
420
  7895160
176
     1
 90
        3
176
     1
 90
        0
176
     1
 90
        0
176
     1
290
     0
176
     1
 90
        5
176
     1
 40
0.0
176
     1
 90
        0
176
     1
290
     0
176
     1
290
     1
176
     1
290
     1
176
     1
290
     0
176
     1
290
     0
176
     1
290
     0
176
     1
290
     0
176
     1
290
     0
176
     1
290
     0
176
     1
 90
       50
176
     1
 40
0.0
176
     1
 40
1.0
176
     1
 90
        0
176
     1
 62
    18
420
        0
176
     1
 90
       50
176
     1
 90
        3
176
     1
 62
     5
420
      255
176
     1
290
     0
176
     1
 90
       50
176
     1
 90
       50
176
     1
 90
       50
176
     1
290
     0
176
     1
 90
       50
176
     1
 62
   256
176
     0
 40
1.0
176
     0
 90
        2
176
     1
  1
strokes_ogs.tif
176
     1
290
     0
176
     1
 40
1.0
176
     1
 40
1.0
176
     1
  0
VISUALSTYLE
  5
551
102
{ACAD_REACTORS
330
2A
102
}
330
2A
100
AcDbVisualStyle
  2
Shaded with edges
 70
    26
177
     3
291
     0
 70
    58
 90
        2
176
     1
 90
        2
176
     1
 90
        1
176
     1
 90
        2
176
     1
 40
0.6
176
     1
 40
30.0
176
     1
 62
     7
420
 16777215
176
     1
 90
        1
176
     1
 90
       10
176
     1
 62
     7
176
     1
 62
   257
176
     1
 90
        2
176
     1
 90
        1
176
     1
 40
1.0
176
     1
 90
        8
176
     1
 62
   257
176
     1
 40
1.0
176
     1
 90
        1
176
     1
 90
        6
176
     1
 90
        2
176
     1
 62
     7
176
     1
 90
        3
176
     1
 90
        0
176
     1
 90
        0
176
     1
290
     0
176
     1
 90
        5
176
     1
 40
0.0
176
     1
 90
        0
176
     1
290
     0
176
     1
290
     1
176
     1
290
     1
176
     1
290
     0
176
     1
290
     0
176
     1
290
     0
176
     1
290
     0
176
     1
290
     0
176
     1
290
     0
176
     1
 90
       50
176
     1
 40
0.0
176
     1
 40
1.0
176
     1
 90
        0
176
     1
 62
    18
420
        0
176
     1
 90
       50
176
     1
 90
        3
176
     1
 62
     5
420
      255
176
     1
290
     0
176
     1
 90
       50
176
     1
 90
       50
176
     1
 90
       50
176
     1
290
     0
176
     1
 90
       50
176
     1
 62
   256
176
     0
 40
1.0
176
     0
 90
        2
176
     1
  1
strokes_ogs.tif
176
     1
290
     0
176
     1
 40
1.0
176
     1
 40
1.0
176
     1
  0
VISUALSTYLE
  5
54E
102
{ACAD_REACTORS
330
2A
102
}
330
2A
100
AcDbVisualStyle
  2
Shades of Gray
 70
    23
177
     3
291
     0
 70
    58
 90
        2
176
     1
 90
        2
176
     1
 90
        3
176
     1
 90
        0
176
     1
 40
0.6
176
     1
 40
30.0
176
     1
 62
     7
420
 16777215
176
     1
 90
        2
176
     1
 90
        2
176
     1
 62
     7
176
     1
 62
     7
176
     1
 90
        1
176
     1
 90
        1
176
     1
 40
40.0
176
     1
 90
        8
176
     1
 62
     7
176
     1
 40
1.0
176
     1
 90
        1
176
     1
 90
        6
176
     1
 90
        2
176
     1
 62
     7
176
     1
 90
        3
176
     1
 90
        0
176
     1
 90
        0
176
     1
290
     0
176
     1
 90
        1
176
     1
 40
0.0
176
     1
 90
        0
176
     1
290
     0
176
     1
290
     1
176
     1
290
     1
176
     1
290
     0
176
     1
290
     0
176
     1
290
     0
176
     1
290
     0
176
     1
290
     0
176
     1
290
     0
176
     1
 90
       50
176
     1
 40
0.0
176
     1
 40
1.0
176
     1
 90
        0
176
     1
 62
    18
420
        0
176
     1
 90
       50
176
     1
 90
        3
176
     1
 62
     5
420
      255
176
     1
290
     0
176
     1
 90
       50
176
     1
 90
       50
176
     1
 90
       50
176
     1
290
     0
176
     1
 90
       50
176
     1
 62
   256
176
     0
 40
1.0
176
     0
 90
        2
176
     1
  1
strokes_ogs.tif
176
     1
290
     0
176
     1
 40
1.0
176
     1
 40
1.0
176
     1
  0
VISUALSTYLE
  5
54F
102
{ACAD_REACTORS
330
2A
102
}
330
2A
100
AcDbVisualStyle
  2
Sketchy
 70
    24
177
     3
291
     0
 70
    58
 90
        1
176
     1
 90
        2
176
     1
 90
        2
176
     1
 90
        0
176
     1
 40
0.6
176
     1
 40
30.0
176
     1
 62
     7
420
 16777215
176
     1
 90
        2
176
     1
 90
        2
176
     1
 62
     7
176
     1
 62
     7
176
     1
 90
        1
176
     1
 90
        1
176
     1
 40
40.0
176
     1
 90
       11
176
     1
 62
     7
176
     1
 40
1.0
176
     1
 90
        1
176
     1
 90
        6
176
     1
 90
        2
176
     1
 62
     7
176
     1
 90
        6
176
     1
 90
        0
176
     1
 90
        0
176
     1
290
     0
176
     1
 90
        1
176
     1
 40
0.0
176
     1
 90
        0
176
     1
290
     0
176
     1
290
     1
176
     1
290
     1
176
     1
290
     0
176
     1
290
     0
176
     1
290
     0
176
     1
290
     0
176
     1
290
     0
176
     1
290
     0
176
     1
 90
       50
176
     1
 40
0.0
176
     1
 40
1.0
176
     1
 90
        0
176
     1
 62
    18
420
        0
176
     1
 90
       50
176
     1
 90
        3
176
     1
 62
     5
420
      255
176
     1
290
     0
176
     1
 90
       50
176
     1
 90
       50
176
     1
 90
       50
176
     1
290
     0
176
     1
 90
       50
176
     1
 62
   256
176
     0
 40
1.0
176
     0
 90
        2
176
     1
  1
strokes_ogs.tif
176
     1
290
     0
176
     1
 40
1.0
176
     1
 40
1.0
176
     1
  0
VISUALSTYLE
  5
37
102
{ACAD_REACTORS
330
2A
102
}
330
2A
100
AcDbVisualStyle
  2
Thicken
 70
    13
177
     3
291
     1
 70
    58
 90
        2
176
     1
 90
        2
176
     1
 90
        0
176
     1
 90
        0
176
     1
 40
-0.6
176
     1
 40
-30.0
176
     1
 62
     7
176
     1
 90
        1
176
     1
 90
        4
176
     1
 62
     7
176
     1
 62
   257
176
     1
 90
        1
176
     1
 90
        1
176
     1
 40
1.0
176
     1
 90
       12
176
     1
 62
     7
176
     1
 40
1.0
176
     1
 90
        1
176
     1
 90
        6
176
     1
 90
        2
176
     1
 62
     7
176
     1
 90
        5
176
     1
 90
        0
176
     1
 90
        0
176
     1
290
     0
176
     1
 90
        1
176
     1
 40
0.0
176
     1
 90
        0
176
     1
290
     0
176
     1
290
     1
176
     1
290
     1
176
     1
290
     0
176
     1
290
     0
176
     1
290
     0
176
     1
290
     0
176
     1
290
     0
176
     1
290
     0
176
     1
 90
       50
176
     1
 40
0.0
176
     1
 40
1.0
176
     1
 90
        0
176
     1
 62
    18
420
        0
176
     1
 90
       50
176
     1
 90
        3
176
     1
 62
     5
420
      255
176
     1
290
     0
176
     1
 90
       50
176
     1
 90
       50
176
     1
 90
       50
176
     1
290
     0
176
     1
 90
       50
176
     1
 62
   256
176
     0
 40
1.0
176
     0
 90
        2
176
     1
  1
strokes_ogs.tif
176
     1
290
     0
176
     1
 40
1.0
176
     1
 40
1.0
176
     1
  0
VISUALSTYLE
  5
549
102
{ACAD_REACTORS
330
2A
102
}
330
2A
100
AcDbVisualStyle
  2
Wireframe
 70
     5
177
     3
291
     0
 70
    58
 90
        0
176
     1
 90
        2
176
     1
 90
        0
176
     1
 90
        0
176
     1
 40
0.6
176
     1
 40
30.0
176
     1
 62
     7
420
 16777215
176
     1
 90
        1
176
     1
 90
        4
176
     1
 62
     7
176
     1
 62
   257
176
     1
 90
        1
176
     1
 90
        1
176
     1
 40
1.0
176
     1
 90
        0
176
     1
 62
   257
176
     1
 40
1.0
176
     1
 90
        1
176
     1
 90
        6
176
     1
 90
        2
176
     1
 62
     7
176
     1
 90
        3
176
     1
 90
        0
176
     1
 90
        0
176
     1
290
     0
176
     1
 90
        1
176
     1
 40
0.0
176
     1
 90
        0
176
     1
290
     0
176
     1
290
     1
176
     1
290
     1
176
     1
290
     0
176
     1
290
     0
176
     1
290
     0
176
     1
290
     0
176
     1
290
     0
176
     1
290
     0
176
     1
 90
       50
176
     1
 40
0.0
176
     1
 40
1.0
176
     1
 90
        0
176
     1
 62
    18
420
        0
176
     1
 90
       50
176
     1
 90
        3
176
     1
 62
     5
420
      255
176
     1
290
     0
176
     1
 90
       50
176
     1
 90
       50
176
     1
 90
       50
176
     1
290
     0
176
     1
 90
       50
176
     1
 62
   256
176
     0
 40
1.0
176
     0
 90
        2
176
     1
  1
strokes_ogs.tif
176
     1
290
     0
176
     1
 40
1.0
176
     1
 40
1.0
176
     1
  0
VISUALSTYLE
  5
550
102
{ACAD_REACTORS
330
2A
102
}
330
2A
100
AcDbVisualStyle
  2
X-Ray
 70
    25
177
     3
291
     0
 70
    58
 90
        2
176
     1
 90
        2
176
     1
 90
        1
176
     1
 90
        1
176
     1
 40
0.5
176
     1
 40
30.0
176
     1
 62
     7
420
 16777215
176
     1
 90
        1
176
     1
 90
        0
176
     1
 62
     7
176
     1
 62
   257
176
     1
 90
        1
176
     1
 90
        1
176
     1
 40
1.0
176
     1
 90
        8
176
     1
 62
     7
176
     1
 40
1.0
176
     1
 90
        1
176
     1
 90
        6
176
     1
 90
        2
176
     1
 62
     7
176
     1
 90
        3
176
     1
 90
        0
176
     1
 90
        0
176
     1
290
     0
176
     1
 90
       13
176
     1
 40
0.0
176
     1
 90
        0
176
     1
290
     0
176
     1
290
     1
176
     1
290
     1
176
     1
290
     0
176
     1
290
     0
176
     1
290
     0
176
     1
290
     0
176
     1
290
     0
176
     1
290
     0
176
     1
 90
       50
176
     1
 40
0.0
176
     1
 40
1.0
176
     1
 90
        0
176
     1
 62
    18
420
        0
176
     1
 90
       50
176
     1
 90
        3
176
     1
 62
     5
420
      255
176
     1
290
     0
176
     1
 90
       50
176
     1
 90
       50
176
     1
 90
       50
176
     1
290
     0
176
     1
 90
       50
176
     1
 62
   256
176
     0
 40
1.0
176
     0
 90
        2
176
     1
  1
strokes_ogs.tif
176
     1
290
     0
176
     1
 40
1.0
176
     1
 40
1.0
176
     1
  0
DICTIONARYVAR
  5
557
102
{ACAD_REACTORS
330
537
102
}
330
537
100
DictionaryVariables
280
     0
  1
1:1
  0
DICTIONARYVAR
  5
55C
102
{ACAD_REACTORS
330
537
102
}
330
537
100
DictionaryVariables
280
     0
  1
Standard
  0
DICTIONARYVAR
  5
55B
102
{ACAD_REACTORS
330
537
102
}
330
537
100
DictionaryVariables
280
     0
  1
Standard
  0
DICTIONARYVAR
  5
53D
102
{ACAD_REACTORS
330
537
102
}
330
537
100
DictionaryVariables
280
     0
  1
2
  0
DICTIONARYVAR
  5
53E
102
{ACAD_REACTORS
330
537
102
}
330
537
100
DictionaryVariables
280
     0
  1
1
  0
DICTIONARYVAR
  5
55D
102
{ACAD_REACTORS
330
537
102
}
330
537
100
DictionaryVariables
280
     0
  1
0
  0
DICTIONARY
  5
558
330
554
100
AcDbDictionary
280
     1
281
     1
  3
ACAD_ROUNDTRIP_2008_TABLESTYLE_CELLSTYLEMAP
360
559
  0
CELLSTYLEMAP
  5
559
102
{ACAD_REACTORS
330
558
102
}
330
558
100
AcDbCellStyleMap
 90
        3
300
CELLSTYLE
  1
TABLEFORMAT_BEGIN
 90
        5
170
     1
 91
        0
 92
    32768
 62
   257
 93
        1
300
CONTENTFORMAT
  1
CONTENTFORMAT_BEGIN
 90
        0
 91
        0
 92
        4
 93
        0
300

 40
0.0
140
1.0
 94
        5
 62
     0
340
11
144
6.0
309
CONTENTFORMAT_END
171
     1
301
MARGIN
  1
CELLMARGIN_BEGIN
 40
1.5
 40
1.5
 40
1.5
 40
1.5
 40
1.5
 40
1.5
309
CELLMARGIN_END
 94
        6
 95
        1
302
GRIDFORMAT
  1
GRIDFORMAT_BEGIN
 90
        0
 91
        1
 62
     0
 92
       -2
340
14
 93
        0
 40
0.045
309
GRIDFORMAT_END
 95
        2
302
GRIDFORMAT
  1
GRIDFORMAT_BEGIN
 90
        0
 91
        1
 62
     0
 92
       -2
340
14
 93
        0
 40
0.045
309
GRIDFORMAT_END
 95
        4
302
GRIDFORMAT
  1
GRIDFORMAT_BEGIN
 90
        0
 91
        1
 62
     0
 92
       -2
340
14
 93
        0
 40
0.045
309
GRIDFORMAT_END
 95
        8
302
GRIDFORMAT
  1
GRIDFORMAT_BEGIN
 90
        0
 91
        1
 62
     0
 92
       -2
340
14
 93
        0
 40
0.045
309
GRIDFORMAT_END
 95
       16
302
GRIDFORMAT
  1
GRIDFORMAT_BEGIN
 90
        0
 91
        1
 62
     0
 92
       -2
340
14
 93
        0
 40
0.045
309
GRIDFORMAT_END
 95
       32
302
GRIDFORMAT
  1
GRIDFORMAT_BEGIN
 90
        0
 91
        1
 62
     0
 92
       -2
340
14
 93
        0
 40
0.045
309
GRIDFORMAT_END
309
TABLEFORMAT_END
  1
CELLSTYLE_BEGIN
 90
        1
 91
        1
300
_TITLE
309
CELLSTYLE_END
300
CELLSTYLE
  1
TABLEFORMAT_BEGIN
 90
        5
170
     1
 91
        0
 92
        0
 62
   257
 93
        1
300
CONTENTFORMAT
  1
CONTENTFORMAT_BEGIN
 90
        0
 91
        0
 92
        4
 93
        0
300

 40
0.0
140
1.0
 94
        5
 62
     0
340
11
144
4.5
309
CONTENTFORMAT_END
171
     1
301
MARGIN
  1
CELLMARGIN_BEGIN
 40
1.5
 40
1.5
 40
1.5
 40
1.5
 40
1.5
 40
1.5
309
CELLMARGIN_END
 94
        6
 95
        1
302
GRIDFORMAT
  1
GRIDFORMAT_BEGIN
 90
        0
 91
        1
 62
     0
 92
       -2
340
14
 93
        0
 40
0.045
309
GRIDFORMAT_END
 95
        2
302
GRIDFORMAT
  1
GRIDFORMAT_BEGIN
 90
        0
 91
        1
 62
     0
 92
       -2
340
14
 93
        0
 40
0.045
309
GRIDFORMAT_END
 95
        4
302
GRIDFORMAT
  1
GRIDFORMAT_BEGIN
 90
        0
 91
        1
 62
     0
 92
       -2
340
14
 93
        0
 40
0.045
309
GRIDFORMAT_END
 95
        8
302
GRIDFORMAT
  1
GRIDFORMAT_BEGIN
 90
        0
 91
        1
 62
     0
 92
       -2
340
14
 93
        0
 40
0.045
309
GRIDFORMAT_END
 95
       16
302
GRIDFORMAT
  1
GRIDFORMAT_BEGIN
 90
        0
 91
        1
 62
     0
 92
       -2
340
14
 93
        0
 40
0.045
309
GRIDFORMAT_END
 95
       32
302
GRIDFORMAT
  1
GRIDFORMAT_BEGIN
 90
        0
 91
        1
 62
     0
 92
       -2
340
14
 93
        0
 40
0.045
309
GRIDFORMAT_END
309
TABLEFORMAT_END
  1
CELLSTYLE_BEGIN
 90
        2
 91
        1
300
_HEADER
309
CELLSTYLE_END
300
CELLSTYLE
  1
TABLEFORMAT_BEGIN
 90
        5
170
     1
 91
        0
 92
        0
 62
   257
 93
        1
300
CONTENTFORMAT
  1
CONTENTFORMAT_BEGIN
 90
        0
 91
        0
 92
        4
 93
        0
300

 40
0.0
140
1.0
 94
        2
 62
     0
340
11
144
4.5
309
CONTENTFORMAT_END
171
     1
301
MARGIN
  1
CELLMARGIN_BEGIN
 40
1.5
 40
1.5
 40
1.5
 40
1.5
 40
1.5
 40
1.5
309
CELLMARGIN_END
 94
        6
 95
        1
302
GRIDFORMAT
  1
GRIDFORMAT_BEGIN
 90
        0
 91
        1
 62
     0
 92
       -2
340
14
 93
        0
 40
0.045
309
GRIDFORMAT_END
 95
        2
302
GRIDFORMAT
  1
GRIDFORMAT_BEGIN
 90
        0
 91
        1
 62
     0
 92
       -2
340
14
 93
        0
 40
0.045
309
GRIDFORMAT_END
 95
        4
302
GRIDFORMAT
  1
GRIDFORMAT_BEGIN
 90
        0
 91
        1
 62
     0
 92
       -2
340
14
 93
        0
 40
0.045
309
GRIDFORMAT_END
 95
        8
302
GRIDFORMAT
  1
GRIDFORMAT_BEGIN
 90
        0
 91
        1
 62
     0
 92
       -2
340
14
 93
        0
 40
0.045
309
GRIDFORMAT_END
 95
       16
302
GRIDFORMAT
  1
GRIDFORMAT_BEGIN
 90
        0
 91
        1
 62
     0
 92
       -2
340
14
 93
        0
 40
0.045
309
GRIDFORMAT_END
 95
       32
302
GRIDFORMAT
  1
GRIDFORMAT_BEGIN
 90
        0
 91
        1
 62
     0
 92
       -2
340
14
 93
        0
 40
0.045
309
GRIDFORMAT_END
309
TABLEFORMAT_END
  1
CELLSTYLE_BEGIN
 90
        3
 91
        2
300
_DATA
309
CELLSTYLE_END
  0
ENDSEC
  0
EOF
