  0
SECTION
  2
HEADER
  9
$ACADVER
  1
AC1014
  9
$ACADMAINTVER
 70
     9
  9
$DWGCODEPAGE
  3
ANSI_1252
  9
$INSBASE
 10
0.0
 20
0.0
 30
0.0
  9
$EXTMIN
 10
0.0
 20
0.0
 30
0.0
  9
$EXTMAX
 10
25.0
 20
35.0
 30
0.0
  9
$LIMMIN
 10
0.0
 20
0.0
  9
$LIMMAX
 10
420.0
 20
297.0
  9
$ORTHOMODE
 70
     0
  9
$REGENMODE
 70
     1
  9
$FILLMODE
 70
     1
  9
$QTEXTMODE
 70
     0
  9
$MIRRTEXT
 70
     1
  9
$DRAGMODE
 70
     2
  9
$LTSCALE
 40
6.25
  9
$OSMODE
 70
    37
  9
$ATTMODE
 70
     1
  9
$TEXTSIZE
 40
2.5
  9
$TRACEWID
 40
1.0
  9
$TEXTSTYLE
  7
STANDARD
  9
$CLAYER
  8
0
  9
$CELTYPE
  6
BYLAYER
  9
$CECOLOR
 62
   256
  9
$CELTSCALE
 40
1.0
  9
$DELOBJ
 70
     1
  9
$DISPSILH
 70
     0
  9
$DIMSCALE
 40
1.0
  9
$DIMASZ
 40
2.5
  9
$DIMEXO
 40
0.625
  9
$DIMDLI
 40
3.75
  9
$DIMRND
 40
0.0
  9
$DIMDLE
 40
0.0
  9
$DIMEXE
 40
1.25
  9
$DIMTP
 40
0.0
  9
$DIMTM
 40
0.0
  9
$DIMTXT
 40
2.5
  9
$DIMCEN
 40
2.5
  9
$DIMTSZ
 40
0.0
  9
$DIMTOL
 70
     0
  9
$DIMLIM
 70
     0
  9
$DIMTIH
 70
     0
  9
$DIMTOH
 70
     0
  9
$DIMSE1
 70
     0
  9
$DIMSE2
 70
     0
  9
$DIMTAD
 70
     1
  9
$DIMZIN
 70
     8
  9
$DIMBLK
  1

  9
$DIMASO
 70
     1
  9
$DIMSHO
 70
     1
  9
$DIMPOST
  1

  9
$DIMAPOST
  1

  9
$DIMALT
 70
     0
  9
$DIMALTD
 70
     3
  9
$DIMALTF
 40
0.03937007874016
  9
$DIMLFAC
 40
1.0
  9
$DIMTOFL
 70
     1
  9
$DIMTVP
 40
0.0
  9
$DIMTIX
 70
     0
  9
$DIMSOXD
 70
     0
  9
$DIMSAH
 70
     0
  9
$DIMBLK1
  1

  9
$DIMBLK2
  1

  9
$DIMSTYLE
  2
ISO-25
  9
$DIMCLRD
 70
     0
  9
$DIMCLRE
 70
     0
  9
$DIMCLRT
 70
     0
  9
$DIMTFAC
 40
1.0
  9
$DIMGAP
 40
0.625
  9
$DIMJUST
 70
     0
  9
$DIMSD1
 70
     0
  9
$DIMSD2
 70
     0
  9
$DIMTOLJ
 70
     0
  9
$DIMTZIN
 70
     8
  9
$DIMALTZ
 70
     0
  9
$DIMALTTZ
 70
     0
  9
$DIMFIT
 70
     3
  9
$DIMUPT
 70
     0
  9
$DIMUNIT
 70
     2
  9
$DIMDEC
 70
     2
  9
$DIMTDEC
 70
     2
  9
$DIMALTU
 70
     2
  9
$DIMALTTD
 70
     3
  9
$DIMTXSTY
  7
STANDARD
  9
$DIMAUNIT
 70
     0
  9
$LUNITS
 70
     2
  9
$LUPREC
 70
     4
  9
$SKETCHINC
 40
1.0
  9
$FILLETRAD
 40
10.0
  9
$AUNITS
 70
     0
  9
$AUPREC
 70
     0
  9
$MENU
  1
.
  9
$ELEVATION
 40
0.0
  9
$PELEVATION
 40
0.0
  9
$THICKNESS
 40
0.0
  9
$LIMCHECK
 70
     0
  9
$CHAMFERA
 40
10.0
  9
$CHAMFERB
 40
10.0
  9
$CHAMFERC
 40
20.0
  9
$CHAMFERD
 40
0.0
  9
$SKPOLY
 70
     0
  9
$TDCREATE
 40
2459250.626388889
  9
$TDUPDATE
 40
2459250.629861111
  9
$TDINDWG
 40
0.0000000116
  9
$TDUSRTIMER
 40
0.0000000116
  9
$USRTIMER
 70
     1
  9
$ANGBASE
 50
0.0
  9
$ANGDIR
 70
     0
  9
$PDMODE
 70
     0
  9
$PDSIZE
 40
0.0
  9
$PLINEWID
 40
0.0
  9
$COORDS
 70
     1
  9
$SPLFRAME
 70
     0
  9
$SPLINETYPE
 70
     6
  9
$SPLINESEGS
 70
     8
  9
$ATTDIA
 70
     0
  9
$ATTREQ
 70
     1
  9
$HANDLING
 70
     1
  9
$HANDSEED
  5
613
  9
$SURFTAB1
 70
     6
  9
$SURFTAB2
 70
     6
  9
$SURFTYPE
 70
     6
  9
$SURFU
 70
     6
  9
$SURFV
 70
     6
  9
$UCSNAME
  2

  9
$UCSORG
 10
0.0
 20
0.0
 30
0.0
  9
$UCSXDIR
 10
1.0
 20
0.0
 30
0.0
  9
$UCSYDIR
 10
0.0
 20
1.0
 30
0.0
  9
$PUCSNAME
  2

  9
$PUCSORG
 10
0.0
 20
0.0
 30
0.0
  9
$PUCSXDIR
 10
1.0
 20
0.0
 30
0.0
  9
$PUCSYDIR
 10
0.0
 20
1.0
 30
0.0
  9
$USERI1
 70
     0
  9
$USERI2
 70
     0
  9
$USERI3
 70
     0
  9
$USERI4
 70
     0
  9
$USERI5
 70
     0
  9
$USERR1
 40
0.0
  9
$USERR2
 40
0.0
  9
$USERR3
 40
0.0
  9
$USERR4
 40
0.0
  9
$USERR5
 40
0.0
  9
$WORLDVIEW
 70
     1
  9
$SHADEDGE
 70
     3
  9
$SHADEDIF
 70
    70
  9
$TILEMODE
 70
     1
  9
$MAXACTVP
 70
    64
  9
$PINSBASE
 10
0.0
 20
0.0
 30
0.0
  9
$PLIMCHECK
 70
     0
  9
$PEXTMIN
 10
1.000000000000000E+20
 20
1.000000000000000E+20
 30
1.000000000000000E+20
  9
$PEXTMAX
 10
-1.000000000000000E+20
 20
-1.000000000000000E+20
 30
-1.000000000000000E+20
  9
$PLIMMIN
 10
0.0
 20
0.0
  9
$PLIMMAX
 10
420.0
 20
297.0
  9
$UNITMODE
 70
     0
  9
$VISRETAIN
 70
     1
  9
$PLINEGEN
 70
     0
  9
$PSLTSCALE
 70
     1
  9
$TREEDEPTH
 70
  3020
  9
$PICKSTYLE
 70
     1
  9
$CMLSTYLE
  2
STANDARD
  9
$CMLJUST
 70
     0
  9
$CMLSCALE
 40
20.0
  9
$PROXYGRAPHICS
 70
     1
  9
$MEASUREMENT
 70
     1
  0
ENDSEC
  0
SECTION
  2
CLASSES
  0
CLASS
  1
ACDBDICTIONARYWDFLT
  2
AcDbDictionaryWithDefault
  3
ObjectDBX Classes
 90
        0
280
     0
281
     0
  0
CLASS
  1
VISUALSTYLE
  2
AcDbVisualStyle
  3
ObjectDBX Classes
 90
     4095
280
     0
281
     0
  0
CLASS
  1
MATERIAL
  2
AcDbMaterial
  3
ObjectDBX Classes
 90
     1153
280
     0
281
     0
  0
CLASS
  1
SCALE
  2
AcDbScale
  3
ObjectDBX Classes
 90
     1153
280
     0
281
     0
  0
CLASS
  1
DICTIONARYVAR
  2
AcDbDictionaryVar
  3
ObjectDBX Classes
 90
        0
280
     0
281
     0
  0
CLASS
  1
XRECORD
  2
AcDbXrecord
  3
AutoCAD 2000
 90
        0
280
     0
281
     0
  0
CLASS
  1
LWPOLYLINE
  2
AcDbPolyline
  3
AutoCAD 2000
 90
        0
280
     0
281
     1
  0
CLASS
  1
HATCH
  2
AcDbHatch
  3
AutoCAD 2000
 90
        0
280
     0
281
     1
  0
CLASS
  1
ACDBPLACEHOLDER
  2
AcDbPlaceHolder
  3
ObjectDBX Classes
 90
        0
280
     0
281
     0
  0
CLASS
  1
LAYOUT
  2
AcDbLayout
  3
ObjectDBX Classes
 90
        0
280
     0
281
     0
  0
ENDSEC
  0
SECTION
  2
TABLES
  0
TABLE
  2
VPORT
  5
8
330
0
100
AcDbSymbolTable
 70
     1
  0
VPORT
  5
29
330
8
100
AcDbSymbolTableRecord
100
AcDbViewportTableRecord
  2
*ACTIVE
 70
     0
 10
0.0
 20
0.0
 11
1.0
 21
1.0
 12
11.26
 22
4.5
 13
0.0
 23
0.0
 14
10.0
 24
10.0
 15
10.0
 25
10.0
 16
0.0
 26
0.0
 36
1.0
 17
0.0
 27
0.0
 37
0.0
 40
9.0
 41
2.503333333333333
 42
50.0
 43
0.0
 44
0.0
 50
0.0
 51
0.0
 71
     0
 72
   100
 73
     1
 74
     3
 75
     0
 76
     0
 77
     0
 78
     0
  0
ENDTAB
  0
TABLE
  2
LTYPE
  5
5
330
0
100
AcDbSymbolTable
 70
    11
  0
LTYPE
  5
14
330
5
100
AcDbSymbolTableRecord
100
AcDbLinetypeTableRecord
  2
BYBLOCK
 70
     0
  3

 72
    65
 73
     0
 40
0.0
  0
LTYPE
  5
15
330
5
100
AcDbSymbolTableRecord
100
AcDbLinetypeTableRecord
  2
BYLAYER
 70
     0
  3

 72
    65
 73
     0
 40
0.0
  0
LTYPE
  5
16
330
5
100
AcDbSymbolTableRecord
100
AcDbLinetypeTableRecord
  2
CONTINUOUS
 70
     0
  3
Solid line
 72
    65
 73
     0
 40
0.0
  0
LTYPE
  5
45
330
5
100
AcDbSymbolTableRecord
100
AcDbLinetypeTableRecord
  2
PHL_THICK
 70
     0
  3
THICK
 72
    65
 73
     0
 40
0.0
  0
LTYPE
  5
5A
330
5
100
AcDbSymbolTableRecord
100
AcDbLinetypeTableRecord
  2
DASH
 70
     0
  3
THIN_DASHED
 72
    65
 73
     2
 40
0.75
 49
0.4
 74
     0
 49
-0.35
 74
     0
  0
LTYPE
  5
6B
330
5
100
AcDbSymbolTableRecord
100
AcDbLinetypeTableRecord
  2
CUT
 70
     0
  3
THICK
 72
    65
 73
     0
 40
0.0
  0
LTYPE
  5
73
330
5
100
AcDbSymbolTableRecord
100
AcDbLinetypeTableRecord
  2
NOCUT
 70
     0
  3
THICK
 72
    65
 73
     0
 40
0.0
  0
LTYPE
  5
80
330
5
100
AcDbSymbolTableRecord
100
AcDbLinetypeTableRecord
  2
LS_2
 70
     0
  3
THIN
 72
    65
 73
     0
 40
0.0
  0
LTYPE
  5
1B5
330
5
100
AcDbSymbolTableRecord
100
AcDbLinetypeTableRecord
  2
LS_SK2
 70
     0
  3
THIN
 72
    65
 73
     0
 40
0.0
  0
LTYPE
  5
281
330
5
100
AcDbSymbolTableRecord
100
AcDbLinetypeTableRecord
  2
LONGDASH_DASH
 70
     0
  3
THIN_DASHDOT
 72
    65
 73
     4
 40
0.85
 49
0.4
 74
     0
 49
-0.2
 74
     0
 49
0.05
 74
     0
 49
-0.2
 74
     0
  0
LTYPE
  5
2A3
330
5
100
AcDbSymbolTableRecord
100
AcDbLinetypeTableRecord
  2
LS_SK1
 70
     0
  3
THICK
 72
    65
 73
     0
 40
0.0
  0
LTYPE
  5
31F
330
5
100
AcDbSymbolTableRecord
100
AcDbLinetypeTableRecord
  2
INFTOTAL
 70
     0
  3
THIN
 72
    65
 73
     0
 40
0.0
  0
LTYPE
  5
325
330
5
100
AcDbSymbolTableRecord
100
AcDbLinetypeTableRecord
  2
LS1
 70
     0
  3
THICK
 72
    65
 73
     0
 40
0.0
  0
ENDTAB
  0
TABLE
  2
LAYER
  5
2
330
0
100
AcDbSymbolTable
 70
    11
  0
LAYER
  5
10
330
2
100
AcDbSymbolTableRecord
100
AcDbLayerTableRecord
  2
0
 70
     0
 62
     7
  6
CONTINUOUS
  0
LAYER
  5
44
330
2
100
AcDbSymbolTableRecord
100
AcDbLayerTableRecord
  2
1
 70
     0
 62
4
  6
CONTINUOUS
370
50
  0
LAYER
  5
59
330
2
100
AcDbSymbolTableRecord
100
AcDbLayerTableRecord
  2
SK3
 70
     0
 62
1
  6
DASH
370
35
  0
LAYER
  5
6A
330
2
100
AcDbSymbolTableRecord
100
AcDbLayerTableRecord
  2
CUT
 70
     0
 62
1
  6
CONTINUOUS
370
25
  0
LAYER
  5
72
330
2
100
AcDbSymbolTableRecord
100
AcDbLayerTableRecord
  2
NOCUT
 70
     0
 62
7
  6
CONTINUOUS
370
25
  0
LAYER
  5
7F
330
2
100
AcDbSymbolTableRecord
100
AcDbLayerTableRecord
  2
2
 70
     0
 62
7
  6
CONTINUOUS
370
25
  0
LAYER
  5
1B4
330
2
100
AcDbSymbolTableRecord
100
AcDbLayerTableRecord
  2
SK2
 70
     0
 62
7
  6
CONTINUOUS
370
25
  0
LAYER
  5
280
330
2
100
AcDbSymbolTableRecord
100
AcDbLayerTableRecord
  2
4
 70
     0
 62
2
  6
LONGDASH_DASH
370
25
  0
LAYER
  5
2A2
330
2
100
AcDbSymbolTableRecord
100
AcDbLayerTableRecord
  2
SK1
 70
     0
 62
4
  6
CONTINUOUS
370
50
  0
LAYER
  5
31E
330
2
100
AcDbSymbolTableRecord
100
AcDbLayerTableRecord
  2
INFTOTAL
 70
     0
 62
9
  6
CONTINUOUS
370
18
  0
LAYER
  5
324
330
2
100
AcDbSymbolTableRecord
100
AcDbLayerTableRecord
  2
SK6
 70
     0
 62
5
  6
CONTINUOUS
370
25
  0
ENDTAB
  0
TABLE
  2
STYLE
  5
3
330
0
100
AcDbSymbolTable
 70
     1
  0
STYLE
  5
11
330
3
100
AcDbSymbolTableRecord
100
AcDbTextStyleTableRecord
  2
STANDARD
 70
     0
 40
0.0
 41
1.0
 50
0.0
 71
     0
 42
2.5
  3
Monospac821 BT
  4

  0
ENDTAB
  0
TABLE
  2
VIEW
  5
6
330
0
100
AcDbSymbolTable
 70
     0
  0
ENDTAB
  0
TABLE
  2
UCS
  5
7
330
0
100
AcDbSymbolTable
 70
     0
  0
ENDTAB
  0
TABLE
  2
APPID
  5
9
330
0
100
AcDbSymbolTable
 70
     2
  0
APPID
  5
12
330
9
100
AcDbSymbolTableRecord
100
AcDbRegAppTableRecord
  2
ACAD
 70
     0
  0
APPID
  5
3F
330
9
100
AcDbSymbolTableRecord
100
AcDbRegAppTableRecord
  2
CCLAB
 70
     0
  0
ENDTAB
  0
TABLE
  2
DIMSTYLE
  5
A
330
0
100
AcDbSymbolTable
 70
     1
  0
DIMSTYLE
105
27
330
A
100
AcDbSymbolTableRecord
100
AcDbDimStyleTableRecord
  2
ISO-25
 70
     0
  3

  4

  5

  6

  7

 40
1.0
 41
2.5
 42
0.625
 43
3.75
 44
1.25
 45
0.0
 46
0.0
 47
0.0
 48
0.0
140
2.5
141
2.5
142
0.0
143
0.03937007874016
144
1.0
145
0.0
146
1.0
147
0.625
 71
     0
 72
     0
 73
     0
 74
     0
 75
     0
 76
     0
 77
     1
 78
     8
170
     0
171
     3
172
     1
173
     0
174
     0
175
     0
176
     0
177
     0
178
     0
270
     2
271
     2
272
     2
273
     2
274
     3
340
11
275
     0
280
     0
281
     0
282
     0
283
     0
284
     8
285
     0
286
     0
287
     3
288
     0
  0
ENDTAB
  0
TABLE
  2
BLOCK_RECORD
  5
1
330
0
100
AcDbSymbolTable
 70
     2
  0
BLOCK_RECORD
  5
1F
330
1
100
AcDbSymbolTableRecord
100
AcDbBlockTableRecord
  2
*MODEL_SPACE
  0
BLOCK_RECORD
  5
1B
330
1
100
AcDbSymbolTableRecord
100
AcDbBlockTableRecord
  2
*PAPER_SPACE
  0
ENDTAB
  0
ENDSEC
  0
SECTION
  2
BLOCKS
  0
BLOCK
  5
20
330
1F
100
AcDbEntity
  8
0
100
AcDbBlockBegin
  2
*MODEL_SPACE
 70
     0
 10
0.0
 20
0.0
 30
0.0
  3
*MODEL_SPACE
  1

  0
ENDBLK
  5
21
330
1F
100
AcDbEntity
  8
0
100
AcDbBlockEnd
  0
BLOCK
  5
1C
330
1B
100
AcDbEntity
 67
     1
  8
0
100
AcDbBlockBegin
  2
*PAPER_SPACE
 70
     0
 10
0.0
 20
0.0
 30
0.0
  3
*PAPER_SPACE
  1

  0
ENDBLK
  5
1D
330
1B
100
AcDbEntity
 67
     1
  8
0
100
AcDbBlockEnd
  0
ENDSEC
  0
SECTION
  2
ENTITIES
  0
LINE
  5
32F
330
1F
100
AcDbEntity
  8
1
  6
CONTINUOUS
370
50
 62
4
100
AcDbLine
 10
24.546902
 20
-15.125
 30
0.0
 11
11.0
 21
-14.5
 31
0.0
  0
LINE
  5
330
330
1F
100
AcDbEntity
  8
1
  6
CONTINUOUS
370
50
 62
4
100
AcDbLine
 10
28.310951
 20
-16.0
 30
0.0
 11
39.5
 21
-16.0
 31
0.0
  0
LINE
  5
331
330
1F
100
AcDbEntity
  8
1
  6
CONTINUOUS
370
50
 62
4
100
AcDbLine
 10
24.546902
 20
-15.125
 30
0.0
 11
27.810955
 21
-15.125
 31
0.0
  0
LINE
  5
332
330
1F
100
AcDbEntity
  8
1
  6
CONTINUOUS
370
50
 62
4
100
AcDbLine
 10
0.0
 20
-14.5
 30
0.0
 11
11.0
 21
-14.5
 31
0.0
  0
LINE
  5
333
330
1F
100
AcDbEntity
  8
1
  6
CONTINUOUS
370
50
 62
4
100
AcDbLine
 10
0.0
 20
14.5
 30
0.0
 11
11.0
 21
14.5
 31
0.0
  0
LINE
  5
334
330
1F
100
AcDbEntity
  8
1
  6
CONTINUOUS
370
50
 62
4
100
AcDbLine
 10
24.546902
 20
15.125
 30
0.0
 11
27.810955
 21
15.125
 31
0.0
  0
LINE
  5
335
330
1F
100
AcDbEntity
  8
1
  6
CONTINUOUS
370
50
 62
4
100
AcDbLine
 10
28.310951
 20
16.0
 30
0.0
 11
39.5
 21
16.0
 31
0.0
  0
LINE
  5
336
330
1F
100
AcDbEntity
  8
1
  6
CONTINUOUS
370
50
 62
4
100
AcDbLine
 10
11.0
 20
14.5
 30
0.0
 11
24.546902
 21
15.125
 31
0.0
  0
LINE
  5
337
330
1F
100
AcDbEntity
  8
1
  6
CONTINUOUS
370
50
 62
4
100
AcDbLine
 10
0.0
 20
-14.5
 30
0.0
 11
0.0
 21
14.5
 31
0.0
  0
LINE
  5
338
330
1F
100
AcDbEntity
  8
1
  6
CONTINUOUS
370
50
 62
4
100
AcDbLine
 10
11.0
 20
-14.5
 30
0.0
 11
11.0
 21
14.5
 31
0.0
  0
LINE
  5
339
330
1F
100
AcDbEntity
  8
1
  6
CONTINUOUS
370
50
 62
4
100
AcDbLine
 10
24.546902
 20
-15.125
 30
0.0
 11
24.546902
 21
15.125
 31
0.0
  0
LINE
  5
33A
330
1F
100
AcDbEntity
  8
1
  6
CONTINUOUS
370
50
 62
4
100
AcDbLine
 10
27.810951
 20
-15.5
 30
0.0
 11
27.810951
 21
15.5
 31
0.0
  0
LINE
  5
33B
330
1F
100
AcDbEntity
  8
1
  6
CONTINUOUS
370
50
 62
4
100
AcDbLine
 10
28.310951
 20
-16.0
 30
0.0
 11
28.310951
 21
16.0
 31
0.0
  0
LINE
  5
33C
330
1F
100
AcDbEntity
  8
1
  6
CONTINUOUS
370
50
 62
4
100
AcDbLine
 10
39.5
 20
-16.0
 30
0.0
 11
39.5
 21
16.0
 31
0.0
  0
LINE
  5
33D
330
1F
100
AcDbEntity
  8
1
  6
CONTINUOUS
370
50
 62
4
100
AcDbLine
 10
40.0
 20
-15.5
 30
0.0
 11
40.0
 21
15.5
 31
0.0
  0
ARC
  5
33E
330
1F
100
AcDbEntity
  8
1
  6
CONTINUOUS
370
50
 62
4
100
AcDbCircle
 10
28.310952
 20
-15.5
 30
0.0
 40
0.5
100
AcDbArc
 50
180.0
 51
269.9999369324614
  0
ARC
  5
33F
330
1F
100
AcDbEntity
  8
1
  6
CONTINUOUS
370
50
 62
4
100
AcDbCircle
 10
28.310952
 20
15.5
 30
0.0
 40
0.4999999999999991
100
AcDbArc
 50
90.00006306753858
 51
180.0
  0
ARC
  5
340
330
1F
100
AcDbEntity
  8
1
  6
CONTINUOUS
370
50
 62
4
100
AcDbCircle
 10
39.5
 20
-15.5
 30
0.0
 40
0.5
100
AcDbArc
 50
270.0000000198475
 51
0.0
  0
ARC
  5
341
330
1F
100
AcDbEntity
  8
1
  6
CONTINUOUS
370
50
 62
4
100
AcDbCircle
 10
39.5
 20
15.5
 30
0.0
 40
0.5
100
AcDbArc
 50
0.0
 51
89.99999998015252
  0
LINE
  5
342
330
1F
100
AcDbEntity
  8
SK3
  6
DASH
370
35
 62
1
100
AcDbLine
 10
0.6
 20
14.5
 30
0.0
 11
0.6
 21
-14.5
 31
0.0
  0
LINE
  5
343
330
1F
100
AcDbEntity
  8
SK3
  6
DASH
370
35
 62
1
100
AcDbLine
 10
0.0
 20
6.80881781221968
 30
0.0
 11
4.40881781221968
 21
6.80881781221968
 31
0.0
  0
LINE
  5
344
330
1F
100
AcDbEntity
  8
SK3
  6
DASH
370
35
 62
1
100
AcDbLine
 10
0.0
 20
-6.80881781221968
 30
0.0
 11
4.40881781221968
 21
-6.80881781221968
 31
0.0
  0
ARC
  5
345
330
1F
100
AcDbEntity
  8
SK3
  6
DASH
370
35
 62
1
100
AcDbCircle
 10
4.40881781221968
 20
7.999999999999999
 30
0.0
 40
1.191182187780319
100
AcDbArc
 50
270.0
 51
0.0
  0
ARC
  5
346
330
1F
100
AcDbEntity
  8
SK3
  6
DASH
370
35
 62
1
100
AcDbCircle
 10
4.40881781221968
 20
-7.999999999999999
 30
0.0
 40
1.191182187780319
100
AcDbArc
 50
0.0
 51
90.0
  0
LINE
  5
347
330
1F
100
AcDbEntity
  8
SK3
  6
DASH
370
35
 62
1
100
AcDbLine
 10
5.6
 20
14.5
 30
0.0
 11
5.6
 21
8.0
 31
0.0
  0
LINE
  5
348
330
1F
100
AcDbEntity
  8
SK3
  6
DASH
370
35
 62
1
100
AcDbLine
 10
5.6
 20
-14.5
 30
0.0
 11
5.6
 21
-8.0
 31
0.0
  0
LINE
  5
349
330
1F
100
AcDbEntity
  8
SK3
  6
DASH
370
35
 62
1
100
AcDbLine
 10
5.6
 20
8.0
 30
0.0
 11
18.0
 21
8.0
 31
0.0
  0
LINE
  5
34A
330
1F
100
AcDbEntity
  8
SK3
  6
DASH
370
35
 62
1
100
AcDbLine
 10
5.6
 20
-8.0
 30
0.0
 11
18.0
 21
-8.0
 31
0.0
  0
LINE
  5
34B
330
1F
100
AcDbEntity
  8
SK3
  6
DASH
370
35
 62
1
100
AcDbLine
 10
18.0
 20
8.0
 30
0.0
 11
18.0
 21
-8.0
 31
0.0
  0
LINE
  5
34C
330
1F
100
AcDbEntity
  8
SK3
  6
DASH
370
35
 62
1
100
AcDbLine
 10
18.0
 20
4.5
 30
0.0
 11
34.968
 21
4.5
 31
0.0
  0
LINE
  5
34D
330
1F
100
AcDbEntity
  8
SK3
  6
DASH
370
35
 62
1
100
AcDbLine
 10
18.0
 20
-4.5
 30
0.0
 11
34.968
 21
-4.5
 31
0.0
  0
LINE
  5
34E
330
1F
100
AcDbEntity
  8
SK3
  6
DASH
370
35
 62
1
100
AcDbLine
 10
34.968
 20
7.5
 30
0.0
 11
34.968
 21
-7.5
 31
0.0
  0
LINE
  5
34F
330
1F
100
AcDbEntity
  8
SK3
  6
DASH
370
35
 62
1
100
AcDbLine
 10
34.968
 20
7.5
 30
0.0
 11
37.08428193
 21
7.5
 31
0.0
  0
LINE
  5
350
330
1F
100
AcDbEntity
  8
SK3
  6
DASH
370
35
 62
1
100
AcDbLine
 10
34.968
 20
-7.5
 30
0.0
 11
37.08428193
 21
-7.5
 31
0.0
  0
LINE
  5
351
330
1F
100
AcDbEntity
  8
CUT
  6
CONTINUOUS
370
25
 62
1
100
AcDbLine
 10
39.5
 20
16.0
 30
0.0
 11
28.31095178310505
 21
16.0
 31
0.0
  0
ARC
  5
352
330
1F
100
AcDbEntity
  8
CUT
  6
CONTINUOUS
370
25
 62
1
100
AcDbCircle
 10
28.31095178327826
 20
15.4999999999
 30
0.0
 40
0.5
100
AcDbArc
 50
90.00000001984789
 51
209.9999999801521
  0
LINE
  5
353
330
1F
100
AcDbEntity
  8
CUT
  6
CONTINUOUS
370
25
 62
1
100
AcDbLine
 10
27.87793908121283
 20
15.25
 30
0.0
 11
33.47246318966031
 21
5.559999999999997
 31
0.0
  0
ARC
  5
354
330
1F
100
AcDbEntity
  8
CUT
  6
CONTINUOUS
370
25
 62
1
100
AcDbCircle
 10
33.90547589155253
 20
5.810000000199997
 30
0.0
 40
0.4999999999999989
100
AcDbArc
 50
210.0000000198478
 51
329.9999999801522
  0
LINE
  5
355
330
1F
100
AcDbEntity
  8
CUT
  6
CONTINUOUS
370
25
 62
1
100
AcDbLine
 10
34.33848859344474
 20
5.559999999999997
 30
0.0
 11
39.93301270189222
 21
15.25
 31
0.0
  0
ARC
  5
356
330
1F
100
AcDbEntity
  8
CUT
  6
CONTINUOUS
370
25
 62
1
100
AcDbCircle
 10
39.4999999998268
 20
15.4999999999
 30
0.0
 40
0.4999999999999961
100
AcDbArc
 50
330.0000000198477
 51
89.99999998015252
  0
LINE
  5
357
330
1F
100
AcDbEntity
  8
NOCUT
  6
CONTINUOUS
370
25
 62
7
100
AcDbLine
 10
0.0
 20
0.0
 30
0.0
 11
24.97866666666667
 21
0.0
 31
0.0
  0
LINE
  5
358
330
1F
100
AcDbEntity
  8
NOCUT
  6
CONTINUOUS
370
25
 62
7
100
AcDbLine
 10
24.97866666666667
 20
0.0
 30
0.0
 11
36.93982336143732
 21
0.0
 31
0.0
  0
LINE
  5
359
330
1F
100
AcDbEntity
  8
NOCUT
  6
CONTINUOUS
370
25
 62
7
100
AcDbLine
 10
36.93982336143732
 20
0.0
 30
0.0
 11
37.468
 21
14.625
 31
0.0
  0
LINE
  5
35A
330
1F
100
AcDbEntity
  8
NOCUT
  6
CONTINUOUS
370
25
 62
7
100
AcDbLine
 10
37.468
 20
14.625
 30
0.0
 11
37.468
 21
15.125
 31
0.0
  0
LINE
  5
35B
330
1F
100
AcDbEntity
  8
NOCUT
  6
CONTINUOUS
370
25
 62
7
100
AcDbLine
 10
37.468
 20
15.125
 30
0.0
 11
24.54690098
 21
15.125
 31
0.0
  0
LINE
  5
35C
330
1F
100
AcDbEntity
  8
NOCUT
  6
CONTINUOUS
370
25
 62
7
100
AcDbLine
 10
24.54690098
 20
15.125
 30
0.0
 11
11.0
 21
14.5
 31
0.0
  0
LINE
  5
35D
330
1F
100
AcDbEntity
  8
NOCUT
  6
CONTINUOUS
370
25
 62
7
100
AcDbLine
 10
11.0
 20
14.5
 30
0.0
 11
0.0
 21
14.5
 31
0.0
  0
LINE
  5
35E
330
1F
100
AcDbEntity
  8
NOCUT
  6
CONTINUOUS
370
25
 62
7
100
AcDbLine
 10
0.0
 20
14.5
 30
0.0
 11
0.0
 21
0.0
 31
0.0
  0
LINE
  5
35F
330
1F
100
AcDbEntity
  8
SK3
  6
DASH
370
35
 62
1
100
AcDbLine
 10
37.08428192924934
 20
4.0
 30
0.0
 11
37.08428192924934
 21
-4.0
 31
0.0
  0
LINE
  5
360
330
1F
100
AcDbEntity
  8
SK3
  6
DASH
370
35
 62
1
100
AcDbLine
 10
37.08428192924934
 20
4.0
 30
0.0
 11
37.468
 21
14.625
 31
0.0
  0
LINE
  5
361
330
1F
100
AcDbEntity
  8
SK3
  6
DASH
370
35
 62
1
100
AcDbLine
 10
37.08428192924934
 20
-4.0
 30
0.0
 11
37.468
 21
-14.625
 31
0.0
  0
LINE
  5
362
330
1F
100
AcDbEntity
  8
2
  6
CONTINUOUS
370
25
 62
7
100
AcDbLine
 10
40.0
 20
-16.0
 30
0.0
 11
73.0
 21
-16.0
 31
0.0
  0
LINE
  5
363
330
1F
100
AcDbEntity
  8
2
  6
CONTINUOUS
370
25
 62
7
100
AcDbLine
 10
73.0
 20
16.0
 30
0.0
 11
40.0
 21
16.0
 31
0.0
  0
LINE
  5
364
330
1F
100
AcDbEntity
  8
2
  6
CONTINUOUS
370
25
 62
7
100
AcDbLine
 10
72.0
 20
-16.0
 30
0.0
 11
72.0
 21
16.0
 31
0.0
  0
LINE
  5
365
330
1F
100
AcDbEntity
  8
2
  6
CONTINUOUS
370
25
 62
7
100
AcDbLine
 10
72.0
 20
-16.0
 30
0.0
 11
71.0
 21
-11.0
 31
0.0
  0
LINE
  5
366
330
1F
100
AcDbEntity
  8
2
  6
CONTINUOUS
370
25
 62
7
100
AcDbLine
 10
71.0
 20
-11.0
 30
0.0
 11
73.0
 21
-11.0
 31
0.0
  0
LINE
  5
367
330
1F
100
AcDbEntity
  8
2
  6
CONTINUOUS
370
25
 62
7
100
AcDbLine
 10
73.0
 20
-11.0
 30
0.0
 11
72.0
 21
-16.0
 31
0.0
  0
LINE
  5
368
330
1F
100
AcDbEntity
  8
2
  6
CONTINUOUS
370
25
 62
7
100
AcDbLine
 10
71.95605260315197
 20
-15.78026301575989
 30
0.0
 11
72.06592109527203
 21
-15.67039452363983
 31
0.0
  0
LINE
  5
369
330
1F
100
AcDbEntity
  8
2
  6
CONTINUOUS
370
25
 62
7
100
AcDbLine
 10
71.88534192503333
 20
-15.42670962516661
 30
0.0
 11
72.17198711245001
 21
-15.14006443774993
 31
0.0
  0
LINE
  5
36A
330
1F
100
AcDbEntity
  8
2
  6
CONTINUOUS
370
25
 62
7
100
AcDbLine
 10
71.81463124691466
 20
-15.07315623457335
 30
0.0
 11
72.278053129628
 21
-14.60973435186
 31
0.0
  0
LINE
  5
36B
330
1F
100
AcDbEntity
  8
2
  6
CONTINUOUS
370
25
 62
7
100
AcDbLine
 10
71.74392056879601
 20
-14.71960284398007
 30
0.0
 11
72.38411914680597
 21
-14.07940426597011
 31
0.0
  0
LINE
  5
36C
330
1F
100
AcDbEntity
  8
2
  6
CONTINUOUS
370
25
 62
7
100
AcDbLine
 10
71.67320989067736
 20
-14.36604945338681
 30
0.0
 11
72.49018516398397
 21
-13.5490741800802
 31
0.0
  0
LINE
  5
36D
330
1F
100
AcDbEntity
  8
2
  6
CONTINUOUS
370
25
 62
7
100
AcDbLine
 10
71.60249921255871
 20
-14.01249606279353
 30
0.0
 11
72.59625118116193
 21
-13.01874409419031
 31
0.0
  0
LINE
  5
36E
330
1F
100
AcDbEntity
  8
2
  6
CONTINUOUS
370
25
 62
7
100
AcDbLine
 10
71.53178853444005
 20
-13.65894267220027
 30
0.0
 11
72.70231719833993
 21
-12.4884140083004
 31
0.0
  0
LINE
  5
36F
330
1F
100
AcDbEntity
  8
2
  6
CONTINUOUS
370
25
 62
7
100
AcDbLine
 10
71.4610778563214
 20
-13.30538928160699
 30
0.0
 11
72.8083832155179
 21
-11.95808392241048
 31
0.0
  0
LINE
  5
370
330
1F
100
AcDbEntity
  8
2
  6
CONTINUOUS
370
25
 62
7
100
AcDbLine
 10
71.39036717820274
 20
-12.95183589101373
 30
0.0
 11
72.91444923269589
 21
-11.42775383652058
 31
0.0
  0
LINE
  5
371
330
1F
100
AcDbEntity
  8
2
  6
CONTINUOUS
370
25
 62
7
100
AcDbLine
 10
71.3196565000841
 20
-12.59828250042045
 30
0.0
 11
72.91793900050455
 21
-11.0
 31
0.0
  0
LINE
  5
372
330
1F
100
AcDbEntity
  8
2
  6
CONTINUOUS
370
25
 62
7
100
AcDbLine
 10
71.24894582196544
 20
-12.24472910982718
 30
0.0
 11
72.49367493179261
 21
-11.0
 31
0.0
  0
LINE
  5
373
330
1F
100
AcDbEntity
  8
2
  6
CONTINUOUS
370
25
 62
7
100
AcDbLine
 10
71.17823514384678
 20
-11.89117571923391
 30
0.0
 11
72.06941086308069
 21
-11.0
 31
0.0
  0
LINE
  5
374
330
1F
100
AcDbEntity
  8
2
  6
CONTINUOUS
370
25
 62
7
100
AcDbLine
 10
71.10752446572813
 20
-11.53762232864064
 30
0.0
 11
71.64514679436877
 21
-11.0
 31
0.0
  0
LINE
  5
375
330
1F
100
AcDbEntity
  8
2
  6
CONTINUOUS
370
25
 62
7
100
AcDbLine
 10
71.03681378760947
 20
-11.18406893804737
 30
0.0
 11
71.22088272565685
 21
-11.0
 31
0.0
  0
LINE
  5
376
330
1F
100
AcDbEntity
  8
2
  6
CONTINUOUS
370
25
 62
7
100
AcDbLine
 10
71.9992857325063
 20
-15.99642866253144
 30
0.0
 11
72.00047617832914
 21
-15.99761910835428
 31
0.0
  0
LINE
  5
377
330
1F
100
AcDbEntity
  8
2
  6
CONTINUOUS
370
25
 62
7
100
AcDbLine
 10
71.89321971532831
 20
-15.46609857664153
 30
0.0
 11
72.0711868564478
 21
-15.64406571776101
 31
0.0
  0
LINE
  5
378
330
1F
100
AcDbEntity
  8
2
  6
CONTINUOUS
370
25
 62
7
100
AcDbLine
 10
71.78715369815032
 20
-14.93576849075161
 30
0.0
 11
72.14189753456645
 21
-15.29051232716775
 31
0.0
  0
LINE
  5
379
330
1F
100
AcDbEntity
  8
2
  6
CONTINUOUS
370
25
 62
7
100
AcDbLine
 10
71.68108768097234
 20
-14.40543840486171
 30
0.0
 11
72.21260821268511
 21
-14.93695893657448
 31
0.0
  0
LINE
  5
37A
330
1F
100
AcDbEntity
  8
2
  6
CONTINUOUS
370
25
 62
7
100
AcDbLine
 10
71.57502166379436
 20
-13.8751083189718
 30
0.0
 11
72.28331889080376
 21
-14.5834055459812
 31
0.0
  0
LINE
  5
37B
330
1F
100
AcDbEntity
  8
2
  6
CONTINUOUS
370
25
 62
7
100
AcDbLine
 10
71.46895564661638
 20
-13.3447782330819
 30
0.0
 11
72.35402956892241
 21
-14.22985215538793
 31
0.0
  0
LINE
  5
37C
330
1F
100
AcDbEntity
  8
2
  6
CONTINUOUS
370
25
 62
7
100
AcDbLine
 10
71.3628896294384
 20
-12.814448147192
 30
0.0
 11
72.42474024704107
 21
-13.87629876479467
 31
0.0
  0
LINE
  5
37D
330
1F
100
AcDbEntity
  8
2
  6
CONTINUOUS
370
25
 62
7
100
AcDbLine
 10
71.25682361226042
 20
-12.28411806130209
 30
0.0
 11
72.49545092515972
 21
-13.52274537420139
 31
0.0
  0
LINE
  5
37E
330
1F
100
AcDbEntity
  8
2
  6
CONTINUOUS
370
25
 62
7
100
AcDbLine
 10
71.15075759508244
 20
-11.75378797541219
 30
0.0
 11
72.56616160327837
 21
-13.16919198360812
 31
0.0
  0
LINE
  5
37F
330
1F
100
AcDbEntity
  8
2
  6
CONTINUOUS
370
25
 62
7
100
AcDbLine
 10
71.04469157790446
 20
-11.22345788952228
 30
0.0
 11
72.63687228139703
 21
-12.81563859301485
 31
0.0
  0
LINE
  5
380
330
1F
100
AcDbEntity
  8
2
  6
CONTINUOUS
370
25
 62
7
100
AcDbLine
 10
71.2454977570941
 20
-11.0
 30
0.0
 11
72.70758295951568
 21
-12.46208520242158
 31
0.0
  0
LINE
  5
381
330
1F
100
AcDbEntity
  8
2
  6
CONTINUOUS
370
25
 62
7
100
AcDbLine
 10
71.66976182580603
 20
-11.00000000000001
 30
0.0
 11
72.77829363763433
 21
-12.10853181182831
 31
0.0
  0
LINE
  5
382
330
1F
100
AcDbEntity
  8
2
  6
CONTINUOUS
370
25
 62
7
100
AcDbLine
 10
72.09402589451796
 20
-11.0
 30
0.0
 11
72.84900431575299
 21
-11.75497842123504
 31
0.0
  0
LINE
  5
383
330
1F
100
AcDbEntity
  8
2
  6
CONTINUOUS
370
25
 62
7
100
AcDbLine
 10
72.51828996322988
 20
-11.0
 30
0.0
 11
72.91971499387165
 21
-11.40142503064178
 31
0.0
  0
LINE
  5
384
330
1F
100
AcDbEntity
  8
2
  6
CONTINUOUS
370
25
 62
7
100
AcDbLine
 10
72.94255403194181
 20
-11.00000000000001
 30
0.0
 11
72.99042567199031
 21
-11.04787164004851
 31
0.0
  0
LINE
  5
385
330
1F
100
AcDbEntity
  8
2
  6
CONTINUOUS
370
25
 62
7
100
AcDbLine
 10
72.0
 20
16.0
 30
0.0
 11
73.0
 21
11.0
 31
0.0
  0
LINE
  5
386
330
1F
100
AcDbEntity
  8
2
  6
CONTINUOUS
370
25
 62
7
100
AcDbLine
 10
73.0
 20
11.0
 30
0.0
 11
71.0
 21
11.0
 31
0.0
  0
LINE
  5
387
330
1F
100
AcDbEntity
  8
2
  6
CONTINUOUS
370
25
 62
7
100
AcDbLine
 10
71.0
 20
11.0
 30
0.0
 11
72.0
 21
16.0
 31
0.0
  0
LINE
  5
388
330
1F
100
AcDbEntity
  8
2
  6
CONTINUOUS
370
25
 62
7
100
AcDbLine
 10
72.73774415389902
 20
11.0
 30
0.0
 11
72.9562906923165
 21
11.21854653841748
 31
0.0
  0
LINE
  5
389
330
1F
100
AcDbEntity
  8
2
  6
CONTINUOUS
370
25
 62
7
100
AcDbLine
 10
72.3134800851871
 20
11.0
 30
0.0
 11
72.88558001419786
 21
11.57209992901076
 31
0.0
  0
LINE
  5
38A
330
1F
100
AcDbEntity
  8
2
  6
CONTINUOUS
370
25
 62
7
100
AcDbLine
 10
71.88921601647517
 20
11.0
 30
0.0
 11
72.8148693360792
 21
11.92565331960402
 31
0.0
  0
LINE
  5
38B
330
1F
100
AcDbEntity
  8
2
  6
CONTINUOUS
370
25
 62
7
100
AcDbLine
 10
71.46495194776324
 20
10.99999999999999
 30
0.0
 11
72.74415865796054
 21
12.27920671019729
 31
0.0
  0
LINE
  5
38C
330
1F
100
AcDbEntity
  8
2
  6
CONTINUOUS
370
25
 62
7
100
AcDbLine
 10
71.04068787905132
 20
11.0
 30
0.0
 11
72.6734479798419
 21
12.63276010079058
 31
0.0
  0
LINE
  5
38D
330
1F
100
AcDbEntity
  8
2
  6
CONTINUOUS
370
25
 62
7
100
AcDbLine
 10
71.09589404741516
 20
11.47947023707576
 30
0.0
 11
72.60273730172322
 21
12.98631349138383
 31
0.0
  0
LINE
  5
38E
330
1F
100
AcDbEntity
  8
2
  6
CONTINUOUS
370
25
 62
7
100
AcDbLine
 10
71.20196006459312
 20
12.00980032296565
 30
0.0
 11
72.53202662360458
 21
13.3398668819771
 31
0.0
  0
LINE
  5
38F
330
1F
100
AcDbEntity
  8
2
  6
CONTINUOUS
370
25
 62
7
100
AcDbLine
 10
71.30802608177112
 20
12.54013040885557
 30
0.0
 11
72.46131594548592
 21
13.69342027257037
 31
0.0
  0
LINE
  5
390
330
1F
100
AcDbEntity
  8
2
  6
CONTINUOUS
370
25
 62
7
100
AcDbLine
 10
71.4140920989491
 20
13.07046049474548
 30
0.0
 11
72.39060526736726
 21
14.04697366316364
 31
0.0
  0
LINE
  5
391
330
1F
100
AcDbEntity
  8
2
  6
CONTINUOUS
370
25
 62
7
100
AcDbLine
 10
71.52015811612708
 20
13.60079058063538
 30
0.0
 11
72.31989458924862
 21
14.40052705375692
 31
0.0
  0
LINE
  5
392
330
1F
100
AcDbEntity
  8
2
  6
CONTINUOUS
370
25
 62
7
100
AcDbLine
 10
71.62622413330506
 20
14.13112066652528
 30
0.0
 11
72.24918391112996
 21
14.75408044435018
 31
0.0
  0
LINE
  5
393
330
1F
100
AcDbEntity
  8
2
  6
CONTINUOUS
370
25
 62
7
100
AcDbLine
 10
71.73229015048304
 20
14.66145075241518
 30
0.0
 11
72.1784732330113
 21
15.10763383494345
 31
0.0
  0
LINE
  5
394
330
1F
100
AcDbEntity
  8
2
  6
CONTINUOUS
370
25
 62
7
100
AcDbLine
 10
71.83835616766102
 20
15.19178083830509
 30
0.0
 11
72.10776255489266
 21
15.46118722553673
 31
0.0
  0
LINE
  5
395
330
1F
100
AcDbEntity
  8
2
  6
CONTINUOUS
370
25
 62
7
100
AcDbLine
 10
71.944422184839
 20
15.72211092419499
 30
0.0
 11
72.037051876774
 21
15.81474061613
 31
0.0
  0
LINE
  5
396
330
1F
100
AcDbEntity
  8
2
  6
CONTINUOUS
370
25
 62
7
100
AcDbLine
 10
71.05120488835239
 20
11.25602444176194
 30
0.0
 11
71.30722933011432
 21
11.0
 31
0.0
  0
LINE
  5
397
330
1F
100
AcDbEntity
  8
2
  6
CONTINUOUS
370
25
 62
7
100
AcDbLine
 10
71.12191556647105
 20
11.60957783235521
 30
0.0
 11
71.73149339882626
 21
11.0
 31
0.0
  0
LINE
  5
398
330
1F
100
AcDbEntity
  8
2
  6
CONTINUOUS
370
25
 62
7
100
AcDbLine
 10
71.1926262445897
 20
11.96313122294848
 30
0.0
 11
72.15575746753818
 21
11.0
 31
0.0
  0
LINE
  5
399
330
1F
100
AcDbEntity
  8
2
  6
CONTINUOUS
370
25
 62
7
100
AcDbLine
 10
71.26333692270835
 20
12.31668461354177
 30
0.0
 11
72.58002153625011
 21
11.0
 31
0.0
  0
LINE
  5
39A
330
1F
100
AcDbEntity
  8
2
  6
CONTINUOUS
370
25
 62
7
100
AcDbLine
 10
71.334047600827
 20
12.67023800413503
 30
0.0
 11
72.99892859875949
 21
11.00535700620254
 31
0.0
  0
LINE
  5
39B
330
1F
100
AcDbEntity
  8
2
  6
CONTINUOUS
370
25
 62
7
100
AcDbLine
 10
71.40475827894566
 20
13.02379139472831
 30
0.0
 11
72.89286258158151
 21
11.53568709209246
 31
0.0
  0
LINE
  5
39C
330
1F
100
AcDbEntity
  8
2
  6
CONTINUOUS
370
25
 62
7
100
AcDbLine
 10
71.47546895706431
 20
13.37734478532158
 30
0.0
 11
72.78679656440353
 21
12.06601717798236
 31
0.0
  0
LINE
  5
39D
330
1F
100
AcDbEntity
  8
2
  6
CONTINUOUS
370
25
 62
7
100
AcDbLine
 10
71.54617963518297
 20
13.73089817591485
 30
0.0
 11
72.68073054722555
 21
12.59634726387226
 31
0.0
  0
LINE
  5
39E
330
1F
100
AcDbEntity
  8
2
  6
CONTINUOUS
370
25
 62
7
100
AcDbLine
 10
71.61689031330162
 20
14.08445156650812
 30
0.0
 11
72.57466453004757
 21
13.12667734976218
 31
0.0
  0
LINE
  5
39F
330
1F
100
AcDbEntity
  8
2
  6
CONTINUOUS
370
25
 62
7
100
AcDbLine
 10
71.68760099142027
 20
14.4380049571014
 30
0.0
 11
72.46859851286959
 21
13.65700743565208
 31
0.0
  0
LINE
  5
3A0
330
1F
100
AcDbEntity
  8
2
  6
CONTINUOUS
370
25
 62
7
100
AcDbLine
 10
71.75831166953893
 20
14.79155834769466
 30
0.0
 11
72.36253249569161
 21
14.18733752154198
 31
0.0
  0
LINE
  5
3A1
330
1F
100
AcDbEntity
  8
2
  6
CONTINUOUS
370
25
 62
7
100
AcDbLine
 10
71.82902234765758
 20
15.14511173828792
 30
0.0
 11
72.25646647851363
 21
14.71766760743188
 31
0.0
  0
LINE
  5
3A2
330
1F
100
AcDbEntity
  8
2
  6
CONTINUOUS
370
25
 62
7
100
AcDbLine
 10
71.89973302577623
 20
15.4986651288812
 30
0.0
 11
72.15040046133565
 21
15.24799769332178
 31
0.0
  0
LINE
  5
3A3
330
1F
100
AcDbEntity
  8
2
  6
CONTINUOUS
370
25
 62
7
100
AcDbLine
 10
71.97044370389489
 20
15.85221851947448
 30
0.0
 11
72.04433444415767
 21
15.77832777921169
 31
0.0
  0
TEXT
  5
3A4
330
1F
100
AcDbEntity
  8
2
  6
CONTINUOUS
370
25
 62
7
100
AcDbText
 10
70.5
 20
-0.641666666666667
 30
0.0
 40
3.5
  1
32
 50
90.0
 72
     1
 11
70.5
 21
2.275
 31
0.0
100
AcDbText
  0
CIRCLE
  5
3A5
330
1F
100
AcDbEntity
  8
2
  6
CONTINUOUS
370
25
 62
7
100
AcDbCircle
 10
68.75
 20
-2.625
 30
0.0
 40
1.4
  0
LINE
  5
3A6
330
1F
100
AcDbEntity
  8
2
  6
CONTINUOUS
370
25
 62
7
100
AcDbLine
 10
70.15
 20
-4.024999999999999
 30
0.0
 11
67.35
 21
-1.224999999999999
 31
0.0
  0
LINE
  5
3A7
330
1F
100
AcDbEntity
  8
2
  6
CONTINUOUS
370
25
 62
7
100
AcDbLine
 10
0.0
 20
-14.5
 30
0.0
 11
-23.0
 21
-14.5
 31
0.0
  0
LINE
  5
3A8
330
1F
100
AcDbEntity
  8
2
  6
CONTINUOUS
370
25
 62
7
100
AcDbLine
 10
-23.0
 20
14.5
 30
0.0
 11
0.0
 21
14.5
 31
0.0
  0
LINE
  5
3A9
330
1F
100
AcDbEntity
  8
2
  6
CONTINUOUS
370
25
 62
7
100
AcDbLine
 10
-22.0
 20
-14.5
 30
0.0
 11
-22.0
 21
14.5
 31
0.0
  0
LINE
  5
3AA
330
1F
100
AcDbEntity
  8
2
  6
CONTINUOUS
370
25
 62
7
100
AcDbLine
 10
-22.0
 20
-14.5
 30
0.0
 11
-23.0
 21
-9.5
 31
0.0
  0
LINE
  5
3AB
330
1F
100
AcDbEntity
  8
2
  6
CONTINUOUS
370
25
 62
7
100
AcDbLine
 10
-23.0
 20
-9.5
 30
0.0
 11
-21.0
 21
-9.5
 31
0.0
  0
LINE
  5
3AC
330
1F
100
AcDbEntity
  8
2
  6
CONTINUOUS
370
25
 62
7
100
AcDbLine
 10
-21.0
 20
-9.5
 30
0.0
 11
-22.0
 21
-14.5
 31
0.0
  0
LINE
  5
3AD
330
1F
100
AcDbEntity
  8
2
  6
CONTINUOUS
370
25
 62
7
100
AcDbLine
 10
-22.02279220613578
 20
-14.38603896932111
 30
0.0
 11
-21.96581169079634
 21
-14.32905845398167
 31
0.0
  0
LINE
  5
3AE
330
1F
100
AcDbEntity
  8
2
  6
CONTINUOUS
370
25
 62
7
100
AcDbLine
 10
-22.09350288425443
 20
-14.03248557872784
 30
0.0
 11
-21.85974567361835
 21
-13.79872836809176
 31
0.0
  0
LINE
  5
3AF
330
1F
100
AcDbEntity
  8
2
  6
CONTINUOUS
370
25
 62
7
100
AcDbLine
 10
-22.16421356237309
 20
-13.67893218813457
 30
0.0
 11
-21.75367965644037
 21
-13.26839828220185
 31
0.0
  0
LINE
  5
3B0
330
1F
100
AcDbEntity
  8
2
  6
CONTINUOUS
370
25
 62
7
100
AcDbLine
 10
-22.23492424049174
 20
-13.32537879754129
 30
0.0
 11
-21.64761363926239
 21
-12.73806819631194
 31
0.0
  0
LINE
  5
3B1
330
1F
100
AcDbEntity
  8
2
  6
CONTINUOUS
370
25
 62
7
100
AcDbLine
 10
-22.30563491861039
 20
-12.97182540694802
 30
0.0
 11
-21.54154762208441
 21
-12.20773811042204
 31
0.0
  0
LINE
  5
3B2
330
1F
100
AcDbEntity
  8
2
  6
CONTINUOUS
370
25
 62
7
100
AcDbLine
 10
-22.37634559672905
 20
-12.61827201635475
 30
0.0
 11
-21.43548160490642
 21
-11.67740802453212
 31
0.0
  0
LINE
  5
3B3
330
1F
100
AcDbEntity
  8
2
  6
CONTINUOUS
370
25
 62
7
100
AcDbLine
 10
-22.44705627484771
 20
-12.26471862576148
 30
0.0
 11
-21.32941558772844
 21
-11.14707793864222
 31
0.0
  0
LINE
  5
3B4
330
1F
100
AcDbEntity
  8
2
  6
CONTINUOUS
370
25
 62
7
100
AcDbLine
 10
-22.51776695296636
 20
-11.9111652351682
 30
0.0
 11
-21.22334957055046
 21
-10.6167478527523
 31
0.0
  0
LINE
  5
3B5
330
1F
100
AcDbEntity
  8
2
  6
CONTINUOUS
370
25
 62
7
100
AcDbLine
 10
-22.58847763108501
 20
-11.55761184457493
 30
0.0
 11
-21.11728355337248
 21
-10.0864177668624
 31
0.0
  0
LINE
  5
3B6
330
1F
100
AcDbEntity
  8
2
  6
CONTINUOUS
370
25
 62
7
100
AcDbLine
 10
-22.65918830920367
 20
-11.20405845398166
 30
0.0
 11
-21.0112175361945
 21
-9.556087680972485
 31
0.0
  0
LINE
  5
3B7
330
1F
100
AcDbEntity
  8
2
  6
CONTINUOUS
370
25
 62
7
100
AcDbLine
 10
-22.72989898732233
 20
-10.85050506338839
 30
0.0
 11
-21.37939392393394
 21
-9.5
 31
0.0
  0
LINE
  5
3B8
330
1F
100
AcDbEntity
  8
2
  6
CONTINUOUS
370
25
 62
7
100
AcDbLine
 10
-22.80060966544098
 20
-10.49695167279511
 30
0.0
 11
-21.80365799264587
 21
-9.5
 31
0.0
  0
LINE
  5
3B9
330
1F
100
AcDbEntity
  8
2
  6
CONTINUOUS
370
25
 62
7
100
AcDbLine
 10
-22.87132034355963
 20
-10.14339828220184
 30
0.0
 11
-22.22792206135779
 21
-9.5
 31
0.0
  0
LINE
  5
3BA
330
1F
100
AcDbEntity
  8
2
  6
CONTINUOUS
370
25
 62
7
100
AcDbLine
 10
-22.94203102167829
 20
-9.789844891608563
 30
0.0
 11
-22.65218613006972
 21
-9.5
 31
0.0
  0
LINE
  5
3BB
330
1F
100
AcDbEntity
  8
2
  6
CONTINUOUS
370
25
 62
7
100
AcDbLine
 10
-22.00086699955817
 20
-14.49566500220916
 30
0.0
 11
-21.99942200029455
 21
-14.49711000147277
 31
0.0
  0
LINE
  5
3BC
330
1F
100
AcDbEntity
  8
2
  6
CONTINUOUS
370
25
 62
7
100
AcDbLine
 10
-22.10693301673615
 20
-13.96533491631925
 30
0.0
 11
-21.9287113221759
 21
-14.1435566108795
 31
0.0
  0
LINE
  5
3BD
330
1F
100
AcDbEntity
  8
2
  6
CONTINUOUS
370
25
 62
7
100
AcDbLine
 10
-22.21299903391413
 20
-13.43500483042935
 30
0.0
 11
-21.85800064405725
 21
-13.79000322028622
 31
0.0
  0
LINE
  5
3BE
330
1F
100
AcDbEntity
  8
2
  6
CONTINUOUS
370
25
 62
7
100
AcDbLine
 10
-22.31906505109212
 20
-12.90467474453942
 30
0.0
 11
-21.78728996593859
 21
-13.43644982969295
 31
0.0
  0
LINE
  5
3BF
330
1F
100
AcDbEntity
  8
2
  6
CONTINUOUS
370
25
 62
7
100
AcDbLine
 10
-22.4251310682701
 20
-12.37434465864952
 30
0.0
 11
-21.71657928781993
 21
-13.08289643909969
 31
0.0
  0
LINE
  5
3C0
330
1F
100
AcDbEntity
  8
2
  6
CONTINUOUS
370
25
 62
7
100
AcDbLine
 10
-22.53119708544808
 20
-11.8440145727596
 30
0.0
 11
-21.64586860970128
 21
-12.7293430485064
 31
0.0
  0
LINE
  5
3C1
330
1F
100
AcDbEntity
  8
2
  6
CONTINUOUS
370
25
 62
7
100
AcDbLine
 10
-22.63726310262606
 20
-11.3136844868697
 30
0.0
 11
-21.57515793158263
 21
-12.37578965791313
 31
0.0
  0
LINE
  5
3C2
330
1F
100
AcDbEntity
  8
2
  6
CONTINUOUS
370
25
 62
7
100
AcDbLine
 10
-22.74332911980404
 20
-10.78335440097979
 30
0.0
 11
-21.50444725346397
 21
-12.02223626731986
 31
0.0
  0
LINE
  5
3C3
330
1F
100
AcDbEntity
  8
2
  6
CONTINUOUS
370
25
 62
7
100
AcDbLine
 10
-22.84939513698203
 20
-10.25302431508988
 30
0.0
 11
-21.43373657534532
 21
-11.66868287672658
 31
0.0
  0
LINE
  5
3C4
330
1F
100
AcDbEntity
  8
2
  6
CONTINUOUS
370
25
 62
7
100
AcDbLine
 10
-22.95546115416001
 20
-9.722694229199966
 30
0.0
 11
-21.36302589722666
 21
-11.31512948613331
 31
0.0
  0
LINE
  5
3C5
330
1F
100
AcDbEntity
  8
2
  6
CONTINUOUS
370
25
 62
7
100
AcDbLine
 10
-22.75389131464805
 20
-9.5
 30
0.0
 11
-21.29231521910801
 21
-10.96157609554004
 31
0.0
  0
LINE
  5
3C6
330
1F
100
AcDbEntity
  8
2
  6
CONTINUOUS
370
25
 62
7
100
AcDbLine
 10
-22.32962724593612
 20
-9.5
 30
0.0
 11
-21.22160454098935
 21
-10.60802270494677
 31
0.0
  0
LINE
  5
3C7
330
1F
100
AcDbEntity
  8
2
  6
CONTINUOUS
370
25
 62
7
100
AcDbLine
 10
-21.90536317722419
 20
-9.5
 30
0.0
 11
-21.1508938628707
 21
-10.25446931435349
 31
0.0
  0
LINE
  5
3C8
330
1F
100
AcDbEntity
  8
2
  6
CONTINUOUS
370
25
 62
7
100
AcDbLine
 10
-21.48109910851226
 20
-9.5
 30
0.0
 11
-21.08018318475204
 21
-9.900915923760223
 31
0.0
  0
LINE
  5
3C9
330
1F
100
AcDbEntity
  8
2
  6
CONTINUOUS
370
25
 62
7
100
AcDbLine
 10
-21.05683503980033
 20
-9.5
 30
0.0
 11
-21.00947250663339
 21
-9.547362533166943
 31
0.0
  0
LINE
  5
3CA
330
1F
100
AcDbEntity
  8
2
  6
CONTINUOUS
370
25
 62
7
100
AcDbLine
 10
-22.0
 20
14.5
 30
0.0
 11
-21.0
 21
9.5
 31
0.0
  0
LINE
  5
3CB
330
1F
100
AcDbEntity
  8
2
  6
CONTINUOUS
370
25
 62
7
100
AcDbLine
 10
-21.0
 20
9.5
 30
0.0
 11
-23.0
 21
9.5
 31
0.0
  0
LINE
  5
3CC
330
1F
100
AcDbEntity
  8
2
  6
CONTINUOUS
370
25
 62
7
100
AcDbLine
 10
-23.0
 20
9.5
 30
0.0
 11
-22.0
 21
14.5
 31
0.0
  0
LINE
  5
3CD
330
1F
100
AcDbEntity
  8
2
  6
CONTINUOUS
370
25
 62
7
100
AcDbLine
 10
-21.04701294725884
 20
9.5
 30
0.0
 11
-21.0078354912098
 21
9.539177456049032
 31
0.0
  0
LINE
  5
3CE
330
1F
100
AcDbEntity
  8
2
  6
CONTINUOUS
370
25
 62
7
100
AcDbLine
 10
-21.47127701597076
 20
9.5
 30
0.0
 11
-21.07854616932846
 21
9.892730846642305
 31
0.0
  0
LINE
  5
3CF
330
1F
100
AcDbEntity
  8
2
  6
CONTINUOUS
370
25
 62
7
100
AcDbLine
 10
-21.89554108468269
 20
9.5
 30
0.0
 11
-21.14925684744712
 21
10.24628423723557
 31
0.0
  0
LINE
  5
3D0
330
1F
100
AcDbEntity
  8
2
  6
CONTINUOUS
370
25
 62
7
100
AcDbLine
 10
-22.31980515339462
 20
9.5
 30
0.0
 11
-21.21996752556577
 21
10.59983762782885
 31
0.0
  0
LINE
  5
3D1
330
1F
100
AcDbEntity
  8
2
  6
CONTINUOUS
370
25
 62
7
100
AcDbLine
 10
-22.74406922210655
 20
9.5
 30
0.0
 11
-21.29067820368442
 21
10.95339101842212
 31
0.0
  0
LINE
  5
3D2
330
1F
100
AcDbEntity
  8
2
  6
CONTINUOUS
370
25
 62
7
100
AcDbLine
 10
-22.95791667729538
 20
9.71041661352309
 30
0.0
 11
-21.36138888180308
 21
11.3069444090154
 31
0.0
  0
LINE
  5
3D3
330
1F
100
AcDbEntity
  8
2
  6
CONTINUOUS
370
25
 62
7
100
AcDbLine
 10
-22.8518506601174
 20
10.240746699413
 30
0.0
 11
-21.43209955992173
 21
11.66049779960866
 31
0.0
  0
LINE
  5
3D4
330
1F
100
AcDbEntity
  8
2
  6
CONTINUOUS
370
25
 62
7
100
AcDbLine
 10
-22.74578464293942
 20
10.77107678530291
 30
0.0
 11
-21.50281023804039
 21
12.01405119020194
 31
0.0
  0
LINE
  5
3D5
330
1F
100
AcDbEntity
  8
2
  6
CONTINUOUS
370
25
 62
7
100
AcDbLine
 10
-22.63971862576144
 20
11.30140687119281
 30
0.0
 11
-21.57352091615904
 21
12.36760458079521
 31
0.0
  0
LINE
  5
3D6
330
1F
100
AcDbEntity
  8
2
  6
CONTINUOUS
370
25
 62
7
100
AcDbLine
 10
-22.53365260858346
 20
11.83173695708273
 30
0.0
 11
-21.6442315942777
 21
12.72115797138848
 31
0.0
  0
LINE
  5
3D7
330
1F
100
AcDbEntity
  8
2
  6
CONTINUOUS
370
25
 62
7
100
AcDbLine
 10
-22.42758659140547
 20
12.36206704297264
 30
0.0
 11
-21.71494227239635
 21
13.07471136198176
 31
0.0
  0
LINE
  5
3D8
330
1F
100
AcDbEntity
  8
2
  6
CONTINUOUS
370
25
 62
7
100
AcDbLine
 10
-22.32152057422749
 20
12.89239712886254
 30
0.0
 11
-21.785652950515
 21
13.42826475257503
 31
0.0
  0
LINE
  5
3D9
330
1F
100
AcDbEntity
  8
2
  6
CONTINUOUS
370
25
 62
7
100
AcDbLine
 10
-22.21545455704951
 20
13.42272721475245
 30
0.0
 11
-21.85636362863366
 21
13.78181814316831
 31
0.0
  0
LINE
  5
3DA
330
1F
100
AcDbEntity
  8
2
  6
CONTINUOUS
370
25
 62
7
100
AcDbLine
 10
-22.10938853987153
 20
13.95305730064236
 30
0.0
 11
-21.92707430675231
 21
14.13537153376158
 31
0.0
  0
LINE
  5
3DB
330
1F
100
AcDbEntity
  8
2
  6
CONTINUOUS
370
25
 62
7
100
AcDbLine
 10
-22.00332252269354
 20
14.48338738653228
 30
0.0
 11
-21.99778498487097
 21
14.48892492435485
 31
0.0
  0
LINE
  5
3DC
330
1F
100
AcDbEntity
  8
2
  6
CONTINUOUS
370
25
 62
7
100
AcDbLine
 10
-22.93397466450986
 20
9.830126677450718
 30
0.0
 11
-22.60384798705914
 21
9.5
 31
0.0
  0
LINE
  5
3DD
330
1F
100
AcDbEntity
  8
2
  6
CONTINUOUS
370
25
 62
7
100
AcDbLine
 10
-22.8632639863912
 20
10.18368006804399
 30
0.0
 11
-22.17958391834721
 21
9.5
 31
0.0
  0
LINE
  5
3DE
330
1F
100
AcDbEntity
  8
2
  6
CONTINUOUS
370
25
 62
7
100
AcDbLine
 10
-22.79255330827255
 20
10.53723345863727
 30
0.0
 11
-21.75531984963528
 21
9.5
 31
0.0
  0
LINE
  5
3DF
330
1F
100
AcDbEntity
  8
2
  6
CONTINUOUS
370
25
 62
7
100
AcDbLine
 10
-22.72184263015389
 20
10.89078684923054
 30
0.0
 11
-21.33105578092335
 21
9.5
 31
0.0
  0
LINE
  5
3E0
330
1F
100
AcDbEntity
  8
2
  6
CONTINUOUS
370
25
 62
7
100
AcDbLine
 10
-22.65113195203524
 20
11.24434023982381
 30
0.0
 11
-21.02330207194714
 21
9.61651035973572
 31
0.0
  0
LINE
  5
3E1
330
1F
100
AcDbEntity
  8
2
  6
CONTINUOUS
370
25
 62
7
100
AcDbLine
 10
-22.58042127391658
 20
11.59789363041708
 30
0.0
 11
-21.12936808912513
 21
10.14684044562563
 31
0.0
  0
LINE
  5
3E2
330
1F
100
AcDbEntity
  8
2
  6
CONTINUOUS
370
25
 62
7
100
AcDbLine
 10
-22.50971059579793
 20
11.95144702101036
 30
0.0
 11
-21.23543410630311
 21
10.67717053151554
 31
0.0
  0
LINE
  5
3E3
330
1F
100
AcDbEntity
  8
2
  6
CONTINUOUS
370
25
 62
7
100
AcDbLine
 10
-22.43899991767927
 20
12.30500041160363
 30
0.0
 11
-21.34150012348109
 21
11.20750061740545
 31
0.0
  0
LINE
  5
3E4
330
1F
100
AcDbEntity
  8
2
  6
CONTINUOUS
370
25
 62
7
100
AcDbLine
 10
-22.36828923956062
 20
12.6585538021969
 30
0.0
 11
-21.44756614065907
 21
11.73783070329536
 31
0.0
  0
LINE
  5
3E5
330
1F
100
AcDbEntity
  8
2
  6
CONTINUOUS
370
25
 62
7
100
AcDbLine
 10
-22.29757856144197
 20
13.01210719279018
 30
0.0
 11
-21.55363215783705
 21
12.26816078918527
 31
0.0
  0
LINE
  5
3E6
330
1F
100
AcDbEntity
  8
2
  6
CONTINUOUS
370
25
 62
7
100
AcDbLine
 10
-22.22686788332331
 20
13.36566058338345
 30
0.0
 11
-21.65969817501504
 21
12.79849087507518
 31
0.0
  0
LINE
  5
3E7
330
1F
100
AcDbEntity
  8
2
  6
CONTINUOUS
370
25
 62
7
100
AcDbLine
 10
-22.15615720520465
 20
13.71921397397672
 30
0.0
 11
-21.76576419219302
 21
13.32882096096509
 31
0.0
  0
LINE
  5
3E8
330
1F
100
AcDbEntity
  8
2
  6
CONTINUOUS
370
25
 62
7
100
AcDbLine
 10
-22.085446527086
 20
14.07276736456999
 30
0.0
 11
-21.871830209371
 21
13.85915104685499
 31
0.0
  0
LINE
  5
3E9
330
1F
100
AcDbEntity
  8
2
  6
CONTINUOUS
370
25
 62
7
100
AcDbLine
 10
-22.01473584896735
 20
14.42632075516327
 30
0.0
 11
-21.97789622654898
 21
14.3894811327449
 31
0.0
  0
TEXT
  5
3EA
330
1F
100
AcDbEntity
  8
2
  6
CONTINUOUS
370
25
 62
7
100
AcDbText
 10
-23.5
 20
-0.641666666666667
 30
0.0
 40
3.5
  1
29
 50
90.0
 72
     1
 11
-23.5
 21
2.275
 31
0.0
100
AcDbText
  0
CIRCLE
  5
3EB
330
1F
100
AcDbEntity
  8
2
  6
CONTINUOUS
370
25
 62
7
100
AcDbCircle
 10
-25.25
 20
-2.625
 30
0.0
 40
1.4
  0
LINE
  5
3EC
330
1F
100
AcDbEntity
  8
2
  6
CONTINUOUS
370
25
 62
7
100
AcDbLine
 10
-23.85
 20
-4.024999999999999
 30
0.0
 11
-26.65
 21
-1.224999999999999
 31
0.0
  0
LINE
  5
3ED
330
1F
100
AcDbEntity
  8
2
  6
CONTINUOUS
370
25
 62
7
100
AcDbLine
 10
40.0
 20
-7.5
 30
0.0
 11
53.0
 21
-7.5
 31
0.0
  0
LINE
  5
3EE
330
1F
100
AcDbEntity
  8
2
  6
CONTINUOUS
370
25
 62
7
100
AcDbLine
 10
53.0
 20
7.5
 30
0.0
 11
40.0
 21
7.5
 31
0.0
  0
LINE
  5
3EF
330
1F
100
AcDbEntity
  8
2
  6
CONTINUOUS
370
25
 62
7
100
AcDbLine
 10
52.0
 20
-14.5
 30
0.0
 11
52.0
 21
14.5
 31
0.0
  0
LINE
  5
3F0
330
1F
100
AcDbEntity
  8
2
  6
CONTINUOUS
370
25
 62
7
100
AcDbLine
 10
52.0
 20
-7.5
 30
0.0
 11
53.0
 21
-12.5
 31
0.0
  0
LINE
  5
3F1
330
1F
100
AcDbEntity
  8
2
  6
CONTINUOUS
370
25
 62
7
100
AcDbLine
 10
53.0
 20
-12.5
 30
0.0
 11
51.0
 21
-12.5
 31
0.0
  0
LINE
  5
3F2
330
1F
100
AcDbEntity
  8
2
  6
CONTINUOUS
370
25
 62
7
100
AcDbLine
 10
51.0
 20
-12.5
 30
0.0
 11
52.0
 21
-7.5
 31
0.0
  0
LINE
  5
3F3
330
1F
100
AcDbEntity
  8
2
  6
CONTINUOUS
370
25
 62
7
100
AcDbLine
 10
52.84363160420395
 20
-12.5
 30
0.0
 11
52.97393860070066
 21
-12.36969300350329
 31
0.0
  0
LINE
  5
3F4
330
1F
100
AcDbEntity
  8
2
  6
CONTINUOUS
370
25
 62
7
100
AcDbLine
 10
52.41936753549201
 20
-12.5
 30
0.0
 11
52.903227922582
 21
-12.01613961291001
 31
0.0
  0
LINE
  5
3F5
330
1F
100
AcDbEntity
  8
2
  6
CONTINUOUS
370
25
 62
7
100
AcDbLine
 10
51.99510346678008
 20
-12.5
 30
0.0
 11
52.83251724446334
 21
-11.66258622231674
 31
0.0
  0
LINE
  5
3F6
330
1F
100
AcDbEntity
  8
2
  6
CONTINUOUS
370
25
 62
7
100
AcDbLine
 10
51.57083939806814
 20
-12.5
 30
0.0
 11
52.76180656634469
 21
-11.30903283172346
 31
0.0
  0
LINE
  5
3F7
330
1F
100
AcDbEntity
  8
2
  6
CONTINUOUS
370
25
 62
7
100
AcDbLine
 10
51.14657532935622
 20
-12.5
 30
0.0
 11
52.69109588822604
 21
-10.95547944113019
 31
0.0
  0
LINE
  5
3F8
330
1F
100
AcDbEntity
  8
2
  6
CONTINUOUS
370
25
 62
7
100
AcDbLine
 10
51.06942218483893
 20
-12.15288907580537
 30
0.0
 11
52.62038521010738
 21
-10.60192605053692
 31
0.0
  0
LINE
  5
3F9
330
1F
100
AcDbEntity
  8
2
  6
CONTINUOUS
370
25
 62
7
100
AcDbLine
 10
51.17548820201691
 20
-11.62255898991546
 30
0.0
 11
52.54967453198873
 21
-10.24837265994364
 31
0.0
  0
LINE
  5
3FA
330
1F
100
AcDbEntity
  8
2
  6
CONTINUOUS
370
25
 62
7
100
AcDbLine
 10
51.28155421919489
 20
-11.09222890402554
 30
0.0
 11
52.47896385387006
 21
-9.894819269350371
 31
0.0
  0
LINE
  5
3FB
330
1F
100
AcDbEntity
  8
2
  6
CONTINUOUS
370
25
 62
7
100
AcDbLine
 10
51.38762023637288
 20
-10.56189881813562
 30
0.0
 11
52.40825317575141
 21
-9.541265878757088
 31
0.0
  0
LINE
  5
3FC
330
1F
100
AcDbEntity
  8
2
  6
CONTINUOUS
370
25
 62
7
100
AcDbLine
 10
51.49368625355086
 20
-10.03156873224571
 30
0.0
 11
52.33754249763276
 21
-9.187712488163811
 31
0.0
  0
LINE
  5
3FD
330
1F
100
AcDbEntity
  8
2
  6
CONTINUOUS
370
25
 62
7
100
AcDbLine
 10
51.59975227072884
 20
-9.501238646355802
 30
0.0
 11
52.2668318195141
 21
-8.834159097570542
 31
0.0
  0
LINE
  5
3FE
330
1F
100
AcDbEntity
  8
2
  6
CONTINUOUS
370
25
 62
7
100
AcDbLine
 10
51.70581828790682
 20
-8.970908560465887
 30
0.0
 11
52.19612114139545
 21
-8.480605706977258
 31
0.0
  0
LINE
  5
3FF
330
1F
100
AcDbEntity
  8
2
  6
CONTINUOUS
370
25
 62
7
100
AcDbLine
 10
51.81188430508481
 20
-8.440578474575965
 30
0.0
 11
52.12541046327679
 21
-8.127052316383988
 31
0.0
  0
LINE
  5
400
330
1F
100
AcDbEntity
  8
2
  6
CONTINUOUS
370
25
 62
7
100
AcDbLine
 10
51.91795032226279
 20
-7.910248388686057
 30
0.0
 11
52.05469978515814
 21
-7.773498925790712
 31
0.0
  0
LINE
  5
401
330
1F
100
AcDbEntity
  8
2
  6
CONTINUOUS
370
25
 62
7
100
AcDbLine
 10
51.0180050421309
 20
-12.40997478934548
 30
0.0
 11
51.10803025278543
 21
-12.5
 31
0.0
  0
LINE
  5
402
330
1F
100
AcDbEntity
  8
2
  6
CONTINUOUS
370
25
 62
7
100
AcDbLine
 10
51.08871572024956
 20
-12.05642139875219
 30
0.0
 11
51.53229432149737
 21
-12.5
 31
0.0
  0
LINE
  5
403
330
1F
100
AcDbEntity
  8
2
  6
CONTINUOUS
370
25
 62
7
100
AcDbLine
 10
51.15942639836822
 20
-11.70286800815893
 30
0.0
 11
51.95655839020929
 21
-12.5
 31
0.0
  0
LINE
  5
404
330
1F
100
AcDbEntity
  8
2
  6
CONTINUOUS
370
25
 62
7
100
AcDbLine
 10
51.23013707648687
 20
-11.34931461756565
 30
0.0
 11
52.38082245892122
 21
-12.5
 31
0.0
  0
LINE
  5
405
330
1F
100
AcDbEntity
  8
2
  6
CONTINUOUS
370
25
 62
7
100
AcDbLine
 10
51.30084775460552
 20
-10.99576122697236
 30
0.0
 11
52.80508652763316
 21
-12.5
 31
0.0
  0
LINE
  5
406
330
1F
100
AcDbEntity
  8
2
  6
CONTINUOUS
370
25
 62
7
100
AcDbLine
 10
51.37155843272419
 20
-10.64220783637911
 30
0.0
 11
52.94266235091373
 21
-12.21331175456865
 31
0.0
  0
LINE
  5
407
330
1F
100
AcDbEntity
  8
2
  6
CONTINUOUS
370
25
 62
7
100
AcDbLine
 10
51.44226911084284
 20
-10.28865444578582
 30
0.0
 11
52.83659633373575
 21
-11.68298166867873
 31
0.0
  0
LINE
  5
408
330
1F
100
AcDbEntity
  8
2
  6
CONTINUOUS
370
25
 62
7
100
AcDbLine
 10
51.51297978896149
 20
-9.935101055192547
 30
0.0
 11
52.73053031655777
 21
-11.15265158278882
 31
0.0
  0
LINE
  5
409
330
1F
100
AcDbEntity
  8
2
  6
CONTINUOUS
370
25
 62
7
100
AcDbLine
 10
51.58369046708015
 20
-9.581547664599263
 30
0.0
 11
52.62446429937978
 21
-10.6223214968989
 31
0.0
  0
LINE
  5
40A
330
1F
100
AcDbEntity
  8
2
  6
CONTINUOUS
370
25
 62
7
100
AcDbLine
 10
51.6544011451988
 20
-9.227994274005994
 30
0.0
 11
52.5183982822018
 21
-10.09199141100899
 31
0.0
  0
LINE
  5
40B
330
1F
100
AcDbEntity
  8
2
  6
CONTINUOUS
370
25
 62
7
100
AcDbLine
 10
51.72511182331746
 20
-8.874440883412717
 30
0.0
 11
52.41233226502382
 21
-9.561661325119083
 31
0.0
  0
LINE
  5
40C
330
1F
100
AcDbEntity
  8
2
  6
CONTINUOUS
370
25
 62
7
100
AcDbLine
 10
51.79582250143611
 20
-8.520887492819426
 30
0.0
 11
52.30626624784583
 21
-9.031331239229154
 31
0.0
  0
LINE
  5
40D
330
1F
100
AcDbEntity
  8
2
  6
CONTINUOUS
370
25
 62
7
100
AcDbLine
 10
51.86653317955477
 20
-8.167334102226157
 30
0.0
 11
52.20020023066785
 21
-8.501001153339239
 31
0.0
  0
LINE
  5
40E
330
1F
100
AcDbEntity
  8
2
  6
CONTINUOUS
370
25
 62
7
100
AcDbLine
 10
51.93724385767342
 20
-7.81378071163288
 30
0.0
 11
52.09413421348987
 21
-7.970671067449331
 31
0.0
  0
LINE
  5
40F
330
1F
100
AcDbEntity
  8
2
  6
CONTINUOUS
370
25
 62
7
100
AcDbLine
 10
52.0
 20
7.5
 30
0.0
 11
51.0
 21
12.5
 31
0.0
  0
LINE
  5
410
330
1F
100
AcDbEntity
  8
2
  6
CONTINUOUS
370
25
 62
7
100
AcDbLine
 10
51.0
 20
12.5
 30
0.0
 11
53.0
 21
12.5
 31
0.0
  0
LINE
  5
411
330
1F
100
AcDbEntity
  8
2
  6
CONTINUOUS
370
25
 62
7
100
AcDbLine
 10
53.0
 20
12.5
 30
0.0
 11
52.0
 21
7.5
 31
0.0
  0
LINE
  5
412
330
1F
100
AcDbEntity
  8
2
  6
CONTINUOUS
370
25
 62
7
100
AcDbLine
 10
51.98925244937345
 20
7.553737753132751
 30
0.0
 11
52.01612132593983
 21
7.580606629699126
 31
0.0
  0
LINE
  5
413
330
1F
100
AcDbEntity
  8
2
  6
CONTINUOUS
370
25
 62
7
100
AcDbLine
 10
51.91854177125479
 20
7.907291143726013
 30
0.0
 11
52.12218734311781
 21
8.110936715589034
 31
0.0
  0
LINE
  5
414
330
1F
100
AcDbEntity
  8
2
  6
CONTINUOUS
370
25
 62
7
100
AcDbLine
 10
51.84783109313614
 20
8.260844534319297
 30
0.0
 11
52.2282533602958
 21
8.641266801478956
 31
0.0
  0
LINE
  5
415
330
1F
100
AcDbEntity
  8
2
  6
CONTINUOUS
370
25
 62
7
100
AcDbLine
 10
51.77712041501749
 20
8.614397924912574
 30
0.0
 11
52.33431937747378
 21
9.171596887368864
 31
0.0
  0
LINE
  5
416
330
1F
100
AcDbEntity
  8
2
  6
CONTINUOUS
370
25
 62
7
100
AcDbLine
 10
51.70640973689883
 20
8.96795131550585
 30
0.0
 11
52.44038539465176
 21
9.701926973258779
 31
0.0
  0
LINE
  5
417
330
1F
100
AcDbEntity
  8
2
  6
CONTINUOUS
370
25
 62
7
100
AcDbLine
 10
51.63569905878018
 20
9.321504706099127
 30
0.0
 11
52.54645141182974
 21
10.23225705914869
 31
0.0
  0
LINE
  5
418
330
1F
100
AcDbEntity
  8
2
  6
CONTINUOUS
370
25
 62
7
100
AcDbLine
 10
51.56498838066151
 20
9.675058096692396
 30
0.0
 11
52.65251742900772
 21
10.76258714503861
 31
0.0
  0
LINE
  5
419
330
1F
100
AcDbEntity
  8
2
  6
CONTINUOUS
370
25
 62
7
100
AcDbLine
 10
51.49427770254286
 20
10.02861148728567
 30
0.0
 11
52.75858344618571
 21
11.29291723092852
 31
0.0
  0
LINE
  5
41A
330
1F
100
AcDbEntity
  8
2
  6
CONTINUOUS
370
25
 62
7
100
AcDbLine
 10
51.42356702442421
 20
10.38216487787896
 30
0.0
 11
52.86464946336369
 21
11.82324731681844
 31
0.0
  0
LINE
  5
41B
330
1F
100
AcDbEntity
  8
2
  6
CONTINUOUS
370
25
 62
7
100
AcDbLine
 10
51.35285634630555
 20
10.73571826847223
 30
0.0
 11
52.97071548054167
 21
12.35357740270835
 31
0.0
  0
LINE
  5
41C
330
1F
100
AcDbEntity
  8
2
  6
CONTINUOUS
370
25
 62
7
100
AcDbLine
 10
51.2821456681869
 20
11.08927165906551
 30
0.0
 11
52.69287400912139
 21
12.5
 31
0.0
  0
LINE
  5
41D
330
1F
100
AcDbEntity
  8
2
  6
CONTINUOUS
370
25
 62
7
100
AcDbLine
 10
51.21143499006823
 20
11.44282504965877
 30
0.0
 11
52.26860994040946
 21
12.5
 31
0.0
  0
LINE
  5
41E
330
1F
100
AcDbEntity
  8
2
  6
CONTINUOUS
370
25
 62
7
100
AcDbLine
 10
51.14072431194958
 20
11.79637844025206
 30
0.0
 11
51.84434587169753
 21
12.5
 31
0.0
  0
LINE
  5
41F
330
1F
100
AcDbEntity
  8
2
  6
CONTINUOUS
370
25
 62
7
100
AcDbLine
 10
51.07001363383093
 20
12.14993183084533
 30
0.0
 11
51.4200818029856
 21
12.5
 31
0.0
  0
LINE
  5
420
330
1F
100
AcDbEntity
  8
2
  6
CONTINUOUS
370
25
 62
7
100
AcDbLine
 10
51.91969157790452
 20
7.901542110477401
 30
0.0
 11
52.05353894806365
 21
7.767694740318262
 31
0.0
  0
LINE
  5
421
330
1F
100
AcDbEntity
  8
2
  6
CONTINUOUS
370
25
 62
7
100
AcDbLine
 10
51.81362556072654
 20
8.431872196367308
 30
0.0
 11
52.1242496261823
 21
8.121248130911539
 31
0.0
  0
LINE
  5
422
330
1F
100
AcDbEntity
  8
2
  6
CONTINUOUS
370
25
 62
7
100
AcDbLine
 10
51.70755954354856
 20
8.962202282257223
 30
0.0
 11
52.19496030430096
 21
8.474801521504816
 31
0.0
  0
LINE
  5
423
330
1F
100
AcDbEntity
  8
2
  6
CONTINUOUS
370
25
 62
7
100
AcDbLine
 10
51.60149352637058
 20
9.492532368147138
 30
0.0
 11
52.26567098241961
 21
8.8283549120981
 31
0.0
  0
LINE
  5
424
330
1F
100
AcDbEntity
  8
2
  6
CONTINUOUS
370
25
 62
7
100
AcDbLine
 10
51.49542750919259
 20
10.02286245403705
 30
0.0
 11
52.33638166053827
 21
9.181908302691376
 31
0.0
  0
LINE
  5
425
330
1F
100
AcDbEntity
  8
2
  6
CONTINUOUS
370
25
 62
7
100
AcDbLine
 10
51.3893614920146
 20
10.55319253992698
 30
0.0
 11
52.40709233865693
 21
9.535461693284645
 31
0.0
  0
LINE
  5
426
330
1F
100
AcDbEntity
  8
2
  6
CONTINUOUS
370
25
 62
7
100
AcDbLine
 10
51.28329547483662
 20
11.08352262581688
 30
0.0
 11
52.47780301677558
 21
9.889015083877922
 31
0.0
  0
LINE
  5
427
330
1F
100
AcDbEntity
  8
2
  6
CONTINUOUS
370
25
 62
7
100
AcDbLine
 10
51.17722945765864
 20
11.6138527117068
 30
0.0
 11
52.54851369489425
 21
10.24256847447119
 31
0.0
  0
LINE
  5
428
330
1F
100
AcDbEntity
  8
2
  6
CONTINUOUS
370
25
 62
7
100
AcDbLine
 10
51.07116344048065
 20
12.14418279759671
 30
0.0
 11
52.6192243730129
 21
10.59612186506448
 31
0.0
  0
LINE
  5
429
330
1F
100
AcDbEntity
  8
2
  6
CONTINUOUS
370
25
 62
7
100
AcDbLine
 10
51.1396103067893
 20
12.5
 30
0.0
 11
52.68993505113156
 21
10.94967525565774
 31
0.0
  0
LINE
  5
42A
330
1F
100
AcDbEntity
  8
2
  6
CONTINUOUS
370
25
 62
7
100
AcDbLine
 10
51.56387437550123
 20
12.5
 30
0.0
 11
52.76064572925021
 21
11.30322864625102
 31
0.0
  0
LINE
  5
42B
330
1F
100
AcDbEntity
  8
2
  6
CONTINUOUS
370
25
 62
7
100
AcDbLine
 10
51.98813844421316
 20
12.5
 30
0.0
 11
52.83135640736886
 21
11.65678203684431
 31
0.0
  0
LINE
  5
42C
330
1F
100
AcDbEntity
  8
2
  6
CONTINUOUS
370
25
 62
7
100
AcDbLine
 10
52.4124025129251
 20
12.5
 30
0.0
 11
52.90206708548752
 21
12.01033542743758
 31
0.0
  0
LINE
  5
42D
330
1F
100
AcDbEntity
  8
2
  6
CONTINUOUS
370
25
 62
7
100
AcDbLine
 10
52.83666658163703
 20
12.5
 30
0.0
 11
52.97277776360617
 21
12.36388881803087
 31
0.0
  0
TEXT
  5
42E
330
1F
100
AcDbEntity
  8
2
  6
CONTINUOUS
370
25
 62
7
100
AcDbText
 10
50.5
 20
-0.0583333333333336
 30
0.0
 40
3.5
  1
15
 50
90.0
 72
     1
 11
50.5
 21
2.275
 31
0.0
100
AcDbText
  0
CIRCLE
  5
42F
330
1F
100
AcDbEntity
  8
2
  6
CONTINUOUS
370
25
 62
7
100
AcDbCircle
 10
48.75
 20
-2.625
 30
0.0
 40
1.4
  0
LINE
  5
430
330
1F
100
AcDbEntity
  8
2
  6
CONTINUOUS
370
25
 62
7
100
AcDbLine
 10
50.15
 20
-4.024999999999999
 30
0.0
 11
47.35
 21
-1.224999999999999
 31
0.0
  0
LINE
  5
431
330
1F
100
AcDbEntity
  8
2
  6
CONTINUOUS
370
25
 62
7
100
AcDbLine
 10
34.0
 20
-16.0
 30
0.0
 11
34.0
 21
-38.92711953
 31
0.0
  0
LINE
  5
432
330
1F
100
AcDbEntity
  8
2
  6
CONTINUOUS
370
25
 62
7
100
AcDbLine
 10
40.0
 20
-38.92711953
 30
0.0
 11
40.0
 21
-16.0
 31
0.0
  0
LINE
  5
433
330
1F
100
AcDbEntity
  8
2
  6
CONTINUOUS
370
25
 62
7
100
AcDbLine
 10
27.0
 20
-37.92711953
 30
0.0
 11
47.0
 21
-37.92711953
 31
0.0
  0
LINE
  5
434
330
1F
100
AcDbEntity
  8
2
  6
CONTINUOUS
370
25
 62
7
100
AcDbLine
 10
34.0
 20
-37.92711953
 30
0.0
 11
29.0
 21
-38.92711953
 31
0.0
  0
LINE
  5
435
330
1F
100
AcDbEntity
  8
2
  6
CONTINUOUS
370
25
 62
7
100
AcDbLine
 10
29.0
 20
-38.92711953
 30
0.0
 11
29.0
 21
-36.92711953
 31
0.0
  0
LINE
  5
436
330
1F
100
AcDbEntity
  8
2
  6
CONTINUOUS
370
25
 62
7
100
AcDbLine
 10
29.0
 20
-36.92711953
 30
0.0
 11
34.0
 21
-37.92711953
 31
0.0
  0
LINE
  5
437
330
1F
100
AcDbEntity
  8
2
  6
CONTINUOUS
370
25
 62
7
100
AcDbLine
 10
33.73183719995664
 20
-37.98075209000866
 30
0.0
 11
33.82122479997108
 21
-37.89136448999422
 31
0.0
  0
LINE
  5
438
330
1F
100
AcDbEntity
  8
2
  6
CONTINUOUS
370
25
 62
7
100
AcDbLine
 10
33.20150711406671
 20
-38.08681810718666
 30
0.0
 11
33.46767140937781
 21
-37.82065381187556
 31
0.0
  0
LINE
  5
439
330
1F
100
AcDbEntity
  8
2
  6
CONTINUOUS
370
25
 62
7
100
AcDbLine
 10
32.6711770281768
 20
-38.19288412436464
 30
0.0
 11
33.11411801878453
 21
-37.74994313375691
 31
0.0
  0
LINE
  5
43A
330
1F
100
AcDbEntity
  8
2
  6
CONTINUOUS
370
25
 62
7
100
AcDbLine
 10
32.14084694228688
 20
-38.29895014154262
 30
0.0
 11
32.76056462819125
 21
-37.67923245563825
 31
0.0
  0
LINE
  5
43B
330
1F
100
AcDbEntity
  8
2
  6
CONTINUOUS
370
25
 62
7
100
AcDbLine
 10
31.61051685639698
 20
-38.4050161587206
 30
0.0
 11
32.40701123759798
 21
-37.6085217775196
 31
0.0
  0
LINE
  5
43C
330
1F
100
AcDbEntity
  8
2
  6
CONTINUOUS
370
25
 62
7
100
AcDbLine
 10
31.08018677050706
 20
-38.51108217589859
 30
0.0
 11
32.0534578470047
 21
-37.53781109940094
 31
0.0
  0
LINE
  5
43D
330
1F
100
AcDbEntity
  8
2
  6
CONTINUOUS
370
25
 62
7
100
AcDbLine
 10
30.54985668461714
 20
-38.61714819307657
 30
0.0
 11
31.69990445641142
 21
-37.46710042128228
 31
0.0
  0
LINE
  5
43E
330
1F
100
AcDbEntity
  8
2
  6
CONTINUOUS
370
25
 62
7
100
AcDbLine
 10
30.01952659872723
 20
-38.72321421025455
 30
0.0
 11
31.34635106581814
 21
-37.39638974316363
 31
0.0
  0
LINE
  5
43F
330
1F
100
AcDbEntity
  8
2
  6
CONTINUOUS
370
25
 62
7
100
AcDbLine
 10
29.48919651283731
 20
-38.82928022743253
 30
0.0
 11
30.99279767522486
 21
-37.32567906504497
 31
0.0
  0
LINE
  5
440
330
1F
100
AcDbEntity
  8
2
  6
CONTINUOUS
370
25
 62
7
100
AcDbLine
 10
29.0
 20
-38.89421267155791
 30
0.0
 11
30.63924428463158
 21
-37.25496838692632
 31
0.0
  0
LINE
  5
441
330
1F
100
AcDbEntity
  8
2
  6
CONTINUOUS
370
25
 62
7
100
AcDbLine
 10
29.0
 20
-38.46994860284597
 30
0.0
 11
30.28569089403831
 21
-37.18425770880766
 31
0.0
  0
LINE
  5
442
330
1F
100
AcDbEntity
  8
2
  6
CONTINUOUS
370
25
 62
7
100
AcDbLine
 10
29.0
 20
-38.04568453413405
 30
0.0
 11
29.93213750344504
 21
-37.11354703068901
 31
0.0
  0
LINE
  5
443
330
1F
100
AcDbEntity
  8
2
  6
CONTINUOUS
370
25
 62
7
100
AcDbLine
 10
29.0
 20
-37.62142046542212
 30
0.0
 11
29.57858411285176
 21
-37.04283635257035
 31
0.0
  0
LINE
  5
444
330
1F
100
AcDbEntity
  8
2
  6
CONTINUOUS
370
25
 62
7
100
AcDbLine
 10
29.0
 20
-37.19715639671018
 30
0.0
 11
29.22503072225848
 21
-36.9721256744517
 31
0.0
  0
LINE
  5
445
330
1F
100
AcDbEntity
  8
2
  6
CONTINUOUS
370
25
 62
7
100
AcDbLine
 10
29.0
 20
-38.77646366546669
 30
0.0
 11
29.12554655377775
 21
-38.90201021924445
 31
0.0
  0
LINE
  5
446
330
1F
100
AcDbEntity
  8
2
  6
CONTINUOUS
370
25
 62
7
100
AcDbLine
 10
29.0
 20
-38.35219959675477
 30
0.0
 11
29.47909994437103
 21
-38.83129954112579
 31
0.0
  0
LINE
  5
447
330
1F
100
AcDbEntity
  8
2
  6
CONTINUOUS
370
25
 62
7
100
AcDbLine
 10
29.0
 20
-37.92793552804283
 30
0.0
 11
29.83265333496431
 21
-38.76058886300714
 31
0.0
  0
LINE
  5
448
330
1F
100
AcDbEntity
  8
2
  6
CONTINUOUS
370
25
 62
7
100
AcDbLine
 10
29.0
 20
-37.5036714593309
 30
0.0
 11
30.18620672555759
 21
-38.68987818488849
 31
0.0
  0
LINE
  5
449
330
1F
100
AcDbEntity
  8
2
  6
CONTINUOUS
370
25
 62
7
100
AcDbLine
 10
29.0
 20
-37.07940739061897
 30
0.0
 11
30.53976011615086
 21
-38.61916750676982
 31
0.0
  0
LINE
  5
44A
330
1F
100
AcDbEntity
  8
2
  6
CONTINUOUS
370
25
 62
7
100
AcDbLine
 10
29.3399702601162
 20
-36.99511358202324
 30
0.0
 11
30.89331350674414
 21
-38.54845682865117
 31
0.0
  0
LINE
  5
44B
330
1F
100
AcDbEntity
  8
2
  6
CONTINUOUS
370
25
 62
7
100
AcDbLine
 10
29.87030034600612
 20
-37.10117959920122
 30
0.0
 11
31.24686689733742
 21
-38.47774615053251
 31
0.0
  0
LINE
  5
44C
330
1F
100
AcDbEntity
  8
2
  6
CONTINUOUS
370
25
 62
7
100
AcDbLine
 10
30.40063043189604
 20
-37.2072456163792
 30
0.0
 11
31.6004202879307
 21
-38.40703547241387
 31
0.0
  0
LINE
  5
44D
330
1F
100
AcDbEntity
  8
2
  6
CONTINUOUS
370
25
 62
7
100
AcDbLine
 10
30.93096051778596
 20
-37.31331163355719
 30
0.0
 11
31.95397367852397
 21
-38.3363247942952
 31
0.0
  0
LINE
  5
44E
330
1F
100
AcDbEntity
  8
2
  6
CONTINUOUS
370
25
 62
7
100
AcDbLine
 10
31.46129060367587
 20
-37.41937765073517
 30
0.0
 11
32.30752706911725
 21
-38.26561411617654
 31
0.0
  0
LINE
  5
44F
330
1F
100
AcDbEntity
  8
2
  6
CONTINUOUS
370
25
 62
7
100
AcDbLine
 10
31.99162068956579
 20
-37.52544366791315
 30
0.0
 11
32.66108045971053
 21
-38.19490343805789
 31
0.0
  0
LINE
  5
450
330
1F
100
AcDbEntity
  8
2
  6
CONTINUOUS
370
25
 62
7
100
AcDbLine
 10
32.52195077545571
 20
-37.63150968509115
 30
0.0
 11
33.01463385030381
 21
-38.12419275993923
 31
0.0
  0
LINE
  5
451
330
1F
100
AcDbEntity
  8
2
  6
CONTINUOUS
370
25
 62
7
100
AcDbLine
 10
33.05228086134564
 20
-37.73757570226913
 30
0.0
 11
33.36818724089709
 21
-38.05348208182058
 31
0.0
  0
LINE
  5
452
330
1F
100
AcDbEntity
  8
2
  6
CONTINUOUS
370
25
 62
7
100
AcDbLine
 10
33.58261094723555
 20
-37.84364171944711
 30
0.0
 11
33.72174063149037
 21
-37.98277140370192
 31
0.0
  0
LINE
  5
453
330
1F
100
AcDbEntity
  8
2
  6
CONTINUOUS
370
25
 62
7
100
AcDbLine
 10
40.0
 20
-37.92711953
 30
0.0
 11
45.0
 21
-36.92711953
 31
0.0
  0
LINE
  5
454
330
1F
100
AcDbEntity
  8
2
  6
CONTINUOUS
370
25
 62
7
100
AcDbLine
 10
45.0
 20
-36.92711953
 30
0.0
 11
45.0
 21
-38.92711953
 31
0.0
  0
LINE
  5
455
330
1F
100
AcDbEntity
  8
2
  6
CONTINUOUS
370
25
 62
7
100
AcDbLine
 10
45.0
 20
-38.92711953
 30
0.0
 11
40.0
 21
-37.92711953
 31
0.0
  0
LINE
  5
456
330
1F
100
AcDbEntity
  8
2
  6
CONTINUOUS
370
25
 62
7
100
AcDbLine
 10
44.66927675906585
 20
-38.86097488181316
 30
0.0
 11
45.0
 21
-38.53025164087902
 31
0.0
  0
LINE
  5
457
330
1F
100
AcDbEntity
  8
2
  6
CONTINUOUS
370
25
 62
7
100
AcDbLine
 10
44.31572336847257
 20
-38.79026420369451
 30
0.0
 11
45.0
 21
-38.10598757216708
 31
0.0
  0
LINE
  5
458
330
1F
100
AcDbEntity
  8
2
  6
CONTINUOUS
370
25
 62
7
100
AcDbLine
 10
43.96216997787929
 20
-38.71955352557585
 30
0.0
 11
45.0
 21
-37.68172350345515
 31
0.0
  0
LINE
  5
459
330
1F
100
AcDbEntity
  8
2
  6
CONTINUOUS
370
25
 62
7
100
AcDbLine
 10
43.60861658728601
 20
-38.6488428474572
 30
0.0
 11
45.0
 21
-37.25745943474321
 31
0.0
  0
LINE
  5
45A
330
1F
100
AcDbEntity
  8
2
  6
CONTINUOUS
370
25
 62
7
100
AcDbLine
 10
43.25506319669273
 20
-38.57813216933855
 30
0.0
 11
44.8825947950391
 21
-36.95060057099218
 31
0.0
  0
LINE
  5
45B
330
1F
100
AcDbEntity
  8
2
  6
CONTINUOUS
370
25
 62
7
100
AcDbLine
 10
42.90150980609945
 20
-38.50742149121989
 30
0.0
 11
44.35226470914917
 21
-37.05666658817017
 31
0.0
  0
LINE
  5
45C
330
1F
100
AcDbEntity
  8
2
  6
CONTINUOUS
370
25
 62
7
100
AcDbLine
 10
42.54795641550618
 20
-38.43671081310123
 30
0.0
 11
43.82193462325926
 21
-37.16273260534815
 31
0.0
  0
LINE
  5
45D
330
1F
100
AcDbEntity
  8
2
  6
CONTINUOUS
370
25
 62
7
100
AcDbLine
 10
42.19440302491289
 20
-38.36600013498258
 30
0.0
 11
43.29160453736934
 21
-37.26879862252613
 31
0.0
  0
LINE
  5
45E
330
1F
100
AcDbEntity
  8
2
  6
CONTINUOUS
370
25
 62
7
100
AcDbLine
 10
41.84084963431962
 20
-38.29528945686392
 30
0.0
 11
42.76127445147942
 21
-37.37486463970411
 31
0.0
  0
LINE
  5
45F
330
1F
100
AcDbEntity
  8
2
  6
CONTINUOUS
370
25
 62
7
100
AcDbLine
 10
41.48729624372634
 20
-38.22457877874526
 30
0.0
 11
42.2309443655895
 21
-37.4809306568821
 31
0.0
  0
LINE
  5
460
330
1F
100
AcDbEntity
  8
2
  6
CONTINUOUS
370
25
 62
7
100
AcDbLine
 10
41.13374285313306
 20
-38.15386810062661
 30
0.0
 11
41.70061427969959
 21
-37.58699667406008
 31
0.0
  0
LINE
  5
461
330
1F
100
AcDbEntity
  8
2
  6
CONTINUOUS
370
25
 62
7
100
AcDbLine
 10
40.78018946253978
 20
-38.08315742250795
 30
0.0
 11
41.17028419380966
 21
-37.69306269123807
 31
0.0
  0
LINE
  5
462
330
1F
100
AcDbEntity
  8
2
  6
CONTINUOUS
370
25
 62
7
100
AcDbLine
 10
40.4266360719465
 20
-38.01244674438929
 30
0.0
 11
40.63995410791975
 21
-37.79912870841605
 31
0.0
  0
LINE
  5
463
330
1F
100
AcDbEntity
  8
2
  6
CONTINUOUS
370
25
 62
7
100
AcDbLine
 10
40.07308268135322
 20
-37.94173606627064
 30
0.0
 11
40.10962402202983
 21
-37.90519472559404
 31
0.0
  0
LINE
  5
464
330
1F
100
AcDbEntity
  8
2
  6
CONTINUOUS
370
25
 62
7
100
AcDbLine
 10
40.32715190346595
 20
-37.86168914930681
 30
0.0
 11
40.49072785519893
 21
-38.02526510103979
 31
0.0
  0
LINE
  5
465
330
1F
100
AcDbEntity
  8
2
  6
CONTINUOUS
370
25
 62
7
100
AcDbLine
 10
40.68070529405924
 20
-37.79097847118815
 30
0.0
 11
41.02105794108885
 21
-38.13133111821777
 31
0.0
  0
LINE
  5
466
330
1F
100
AcDbEntity
  8
2
  6
CONTINUOUS
370
25
 62
7
100
AcDbLine
 10
41.03425868465251
 20
-37.7202677930695
 30
0.0
 11
41.55138802697877
 21
-38.23739713539575
 31
0.0
  0
LINE
  5
467
330
1F
100
AcDbEntity
  8
2
  6
CONTINUOUS
370
25
 62
7
100
AcDbLine
 10
41.3878120752458
 20
-37.64955711495085
 30
0.0
 11
42.08171811286869
 21
-38.34346315257373
 31
0.0
  0
LINE
  5
468
330
1F
100
AcDbEntity
  8
2
  6
CONTINUOUS
370
25
 62
7
100
AcDbLine
 10
41.74136546583907
 20
-37.57884643683219
 30
0.0
 11
42.61204819875861
 21
-38.44952916975172
 31
0.0
  0
LINE
  5
469
330
1F
100
AcDbEntity
  8
2
  6
CONTINUOUS
370
25
 62
7
100
AcDbLine
 10
42.09491885643235
 20
-37.50813575871353
 30
0.0
 11
43.14237828464853
 21
-38.55559518692971
 31
0.0
  0
LINE
  5
46A
330
1F
100
AcDbEntity
  8
2
  6
CONTINUOUS
370
25
 62
7
100
AcDbLine
 10
42.44847224702563
 20
-37.43742508059488
 30
0.0
 11
43.67270837053844
 21
-38.66166120410768
 31
0.0
  0
LINE
  5
46B
330
1F
100
AcDbEntity
  8
2
  6
CONTINUOUS
370
25
 62
7
100
AcDbLine
 10
42.80202563761891
 20
-37.36671440247622
 30
0.0
 11
44.20303845642837
 21
-38.76772722128567
 31
0.0
  0
LINE
  5
46C
330
1F
100
AcDbEntity
  8
2
  6
CONTINUOUS
370
25
 62
7
100
AcDbLine
 10
43.15557902821219
 20
-37.29600372435757
 30
0.0
 11
44.73336854231829
 21
-38.87379323846366
 31
0.0
  0
LINE
  5
46D
330
1F
100
AcDbEntity
  8
2
  6
CONTINUOUS
370
25
 62
7
100
AcDbLine
 10
43.50913241880547
 20
-37.2252930462389
 30
0.0
 11
45.0
 21
-38.71616062743343
 31
0.0
  0
LINE
  5
46E
330
1F
100
AcDbEntity
  8
2
  6
CONTINUOUS
370
25
 62
7
100
AcDbLine
 10
43.86268580939875
 20
-37.15458236812025
 30
0.0
 11
45.0
 21
-38.2918965587215
 31
0.0
  0
LINE
  5
46F
330
1F
100
AcDbEntity
  8
2
  6
CONTINUOUS
370
25
 62
7
100
AcDbLine
 10
44.21623919999202
 20
-37.08387169000159
 30
0.0
 11
45.0
 21
-37.86763249000957
 31
0.0
  0
LINE
  5
470
330
1F
100
AcDbEntity
  8
2
  6
CONTINUOUS
370
25
 62
7
100
AcDbLine
 10
44.5697925905853
 20
-37.01316101188293
 30
0.0
 11
45.0
 21
-37.44336842129763
 31
0.0
  0
LINE
  5
471
330
1F
100
AcDbEntity
  8
2
  6
CONTINUOUS
370
25
 62
7
100
AcDbLine
 10
44.92334598117858
 20
-36.94245033376428
 30
0.0
 11
45.0
 21
-37.0191043525857
 31
0.0
  0
TEXT
  5
472
330
1F
100
AcDbEntity
  8
2
  6
CONTINUOUS
370
25
 62
7
100
AcDbText
 10
35.83333333333334
 20
-36.42711953
 30
0.0
 40
3.5
  1
6
 72
     1
 11
37.0
 21
-36.42711953
 31
0.0
100
AcDbText
  0
LINE
  5
473
330
1F
100
AcDbEntity
  8
SK2
  6
CONTINUOUS
370
25
 62
7
100
AcDbLine
 10
-0.000000000000001
 20
0.0
 30
0.0
 11
0.0000000000000008
 21
28.99149655
 31
0.0
  0
LINE
  5
474
330
1F
100
AcDbEntity
  8
SK2
  6
CONTINUOUS
370
25
 62
7
100
AcDbLine
 10
40.0
 20
28.99149655
 30
0.0
 11
40.0
 21
16.0
 31
0.0
  0
LINE
  5
475
330
1F
100
AcDbEntity
  8
SK2
  6
CONTINUOUS
370
25
 62
7
100
AcDbLine
 10
0.0
 20
27.99149655
 30
0.0
 11
40.0
 21
27.99149655
 31
0.0
  0
LINE
  5
476
330
1F
100
AcDbEntity
  8
SK2
  6
CONTINUOUS
370
25
 62
7
100
AcDbLine
 10
0.0
 20
27.99149655
 30
0.0
 11
5.0
 21
28.99149655
 31
0.0
  0
LINE
  5
477
330
1F
100
AcDbEntity
  8
SK2
  6
CONTINUOUS
370
25
 62
7
100
AcDbLine
 10
5.0
 20
28.99149655
 30
0.0
 11
5.0
 21
26.99149655
 31
0.0
  0
LINE
  5
478
330
1F
100
AcDbEntity
  8
SK2
  6
CONTINUOUS
370
25
 62
7
100
AcDbLine
 10
5.0
 20
26.99149655
 30
0.0
 11
0.0
 21
27.99149655
 31
0.0
  0
LINE
  5
479
330
1F
100
AcDbEntity
  8
SK2
  6
CONTINUOUS
370
25
 62
7
100
AcDbLine
 10
4.9414708141498
 20
27.00320238717004
 30
0.0
 11
5.0
 21
27.06173157302024
 31
0.0
  0
LINE
  5
47A
330
1F
100
AcDbEntity
  8
SK2
  6
CONTINUOUS
370
25
 62
7
100
AcDbLine
 10
4.587917423556526
 20
27.07391306528869
 30
0.0
 11
5.0
 21
27.48599564173217
 31
0.0
  0
LINE
  5
47B
330
1F
100
AcDbEntity
  8
SK2
  6
CONTINUOUS
370
25
 62
7
100
AcDbLine
 10
4.234364032963253
 20
27.14462374340735
 30
0.0
 11
5.0
 21
27.91025971044409
 31
0.0
  0
LINE
  5
47C
330
1F
100
AcDbEntity
  8
SK2
  6
CONTINUOUS
370
25
 62
7
100
AcDbLine
 10
3.88081064236998
 20
27.21533442152601
 30
0.0
 11
5.0
 21
28.33452377915602
 31
0.0
  0
LINE
  5
47D
330
1F
100
AcDbEntity
  8
SK2
  6
CONTINUOUS
370
25
 62
7
100
AcDbLine
 10
3.527257251776708
 20
27.28604509964466
 30
0.0
 11
5.0
 21
28.75878784786795
 31
0.0
  0
LINE
  5
47E
330
1F
100
AcDbEntity
  8
SK2
  6
CONTINUOUS
370
25
 62
7
100
AcDbLine
 10
3.173703861183435
 20
27.35675577776331
 30
0.0
 11
4.760555791775153
 21
28.94360770835503
 31
0.0
  0
LINE
  5
47F
330
1F
100
AcDbEntity
  8
SK2
  6
CONTINUOUS
370
25
 62
7
100
AcDbLine
 10
2.820150470590161
 20
27.42746645588197
 30
0.0
 11
4.230225705885243
 21
28.83754169117705
 31
0.0
  0
LINE
  5
480
330
1F
100
AcDbEntity
  8
SK2
  6
CONTINUOUS
370
25
 62
7
100
AcDbLine
 10
2.466597079996884
 20
27.49817713400062
 30
0.0
 11
3.699895619995327
 21
28.73147567399906
 31
0.0
  0
LINE
  5
481
330
1F
100
AcDbEntity
  8
SK2
  6
CONTINUOUS
370
25
 62
7
100
AcDbLine
 10
2.113043689403611
 20
27.56888781211928
 30
0.0
 11
3.169565534105416
 21
28.62540965682108
 31
0.0
  0
LINE
  5
482
330
1F
100
AcDbEntity
  8
SK2
  6
CONTINUOUS
370
25
 62
7
100
AcDbLine
 10
1.759490298810337
 20
27.63959849023793
 30
0.0
 11
2.639235448215505
 21
28.5193436396431
 31
0.0
  0
LINE
  5
483
330
1F
100
AcDbEntity
  8
SK2
  6
CONTINUOUS
370
25
 62
7
100
AcDbLine
 10
1.405936908217064
 20
27.71030916835659
 30
0.0
 11
2.108905362325595
 21
28.41327762246512
 31
0.0
  0
LINE
  5
484
330
1F
100
AcDbEntity
  8
SK2
  6
CONTINUOUS
370
25
 62
7
100
AcDbLine
 10
1.052383517623788
 20
27.78101984647524
 30
0.0
 11
1.578575276435681
 21
28.30721160528714
 31
0.0
  0
LINE
  5
485
330
1F
100
AcDbEntity
  8
SK2
  6
CONTINUOUS
370
25
 62
7
100
AcDbLine
 10
0.6988301270305118
 20
27.8517305245939
 30
0.0
 11
1.048245190545767
 21
28.20114558810915
 31
0.0
  0
LINE
  5
486
330
1F
100
AcDbEntity
  8
SK2
  6
CONTINUOUS
370
25
 62
7
100
AcDbLine
 10
0.3452767364372391
 20
27.92244120271255
 30
0.0
 11
0.5179151046558582
 21
28.09507957093117
 31
0.0
  0
LINE
  5
487
330
1F
100
AcDbEntity
  8
SK2
  6
CONTINUOUS
370
25
 62
7
100
AcDbLine
 10
0.0082766541560334
 20
27.99315188083121
 30
0.0
 11
0.0124149812340502
 21
27.98901355375319
 31
0.0
  0
LINE
  5
488
330
1F
100
AcDbEntity
  8
SK2
  6
CONTINUOUS
370
25
 62
7
100
AcDbLine
 10
0.3618300447493098
 20
28.06386255894986
 30
0.0
 11
0.542745067123965
 21
27.88294753657521
 31
0.0
  0
LINE
  5
489
330
1F
100
AcDbEntity
  8
SK2
  6
CONTINUOUS
370
25
 62
7
100
AcDbLine
 10
0.7153834353425832
 20
28.13457323706852
 30
0.0
 11
1.073075153013875
 21
27.77688151939723
 31
0.0
  0
LINE
  5
48A
330
1F
100
AcDbEntity
  8
SK2
  6
CONTINUOUS
370
25
 62
7
100
AcDbLine
 10
1.068936825935857
 20
28.20528391518717
 30
0.0
 11
1.603405238903786
 21
27.67081550221925
 31
0.0
  0
LINE
  5
48B
330
1F
100
AcDbEntity
  8
SK2
  6
CONTINUOUS
370
25
 62
7
100
AcDbLine
 10
1.422490216529132
 20
28.27599459330583
 30
0.0
 11
2.1337353247937
 21
27.56474948504126
 31
0.0
  0
LINE
  5
48C
330
1F
100
AcDbEntity
  8
SK2
  6
CONTINUOUS
370
25
 62
7
100
AcDbLine
 10
1.776043607122405
 20
28.34670527142448
 30
0.0
 11
2.664065410683607
 21
27.45868346786328
 31
0.0
  0
LINE
  5
48D
330
1F
100
AcDbEntity
  8
SK2
  6
CONTINUOUS
370
25
 62
7
100
AcDbLine
 10
2.129596997715681
 20
28.41741594954314
 30
0.0
 11
3.19439549657352
 21
27.3526174506853
 31
0.0
  0
LINE
  5
48E
330
1F
100
AcDbEntity
  8
SK2
  6
CONTINUOUS
370
25
 62
7
100
AcDbLine
 10
2.483150388308955
 20
28.48812662766179
 30
0.0
 11
3.724725582463432
 21
27.24655143350731
 31
0.0
  0
LINE
  5
48F
330
1F
100
AcDbEntity
  8
SK2
  6
CONTINUOUS
370
25
 62
7
100
AcDbLine
 10
2.836703778902231
 20
28.55883730578045
 30
0.0
 11
4.255055668353344
 21
27.14048541632933
 31
0.0
  0
LINE
  5
490
330
1F
100
AcDbEntity
  8
SK2
  6
CONTINUOUS
370
25
 62
7
100
AcDbLine
 10
3.190257169495506
 20
28.6295479838991
 30
0.0
 11
4.785385754243255
 21
27.03441939915135
 31
0.0
  0
LINE
  5
491
330
1F
100
AcDbEntity
  8
SK2
  6
CONTINUOUS
370
25
 62
7
100
AcDbLine
 10
3.543810560088776
 20
28.70025866201776
 30
0.0
 11
5.0
 21
27.24406922210653
 31
0.0
  0
LINE
  5
492
330
1F
100
AcDbEntity
  8
SK2
  6
CONTINUOUS
370
25
 62
7
100
AcDbLine
 10
3.897363950682054
 20
28.77096934013641
 30
0.0
 11
5.0
 21
27.66833329081846
 31
0.0
  0
LINE
  5
493
330
1F
100
AcDbEntity
  8
SK2
  6
CONTINUOUS
370
25
 62
7
100
AcDbLine
 10
4.250917341275331
 20
28.84168001825507
 30
0.0
 11
5.0
 21
28.09259735953039
 31
0.0
  0
LINE
  5
494
330
1F
100
AcDbEntity
  8
SK2
  6
CONTINUOUS
370
25
 62
7
100
AcDbLine
 10
4.604470731868602
 20
28.91239069637372
 30
0.0
 11
5.0
 21
28.51686142824232
 31
0.0
  0
LINE
  5
495
330
1F
100
AcDbEntity
  8
SK2
  6
CONTINUOUS
370
25
 62
7
100
AcDbLine
 10
4.958024122461877
 20
28.98310137449238
 30
0.0
 11
5.0
 21
28.94112549695425
 31
0.0
  0
LINE
  5
496
330
1F
100
AcDbEntity
  8
SK2
  6
CONTINUOUS
370
25
 62
7
100
AcDbLine
 10
40.0
 20
27.99149655
 30
0.0
 11
35.0
 21
26.99149655
 31
0.0
  0
LINE
  5
497
330
1F
100
AcDbEntity
  8
SK2
  6
CONTINUOUS
370
25
 62
7
100
AcDbLine
 10
35.0
 20
26.99149655
 30
0.0
 11
35.0
 21
28.99149655
 31
0.0
  0
LINE
  5
498
330
1F
100
AcDbEntity
  8
SK2
  6
CONTINUOUS
370
25
 62
7
100
AcDbLine
 10
35.0
 20
28.99149655
 30
0.0
 11
40.0
 21
27.99149655
 31
0.0
  0
LINE
  5
499
330
1F
100
AcDbEntity
  8
SK2
  6
CONTINUOUS
370
25
 62
7
100
AcDbLine
 10
39.61010921043404
 20
27.91351839208681
 30
0.0
 11
39.74007280695603
 21
28.0434819886088
 31
0.0
  0
LINE
  5
49A
330
1F
100
AcDbEntity
  8
SK2
  6
CONTINUOUS
370
25
 62
7
100
AcDbLine
 10
39.07977912454412
 20
27.80745237490882
 30
0.0
 11
39.38651941636276
 21
28.11419266672746
 31
0.0
  0
LINE
  5
49B
330
1F
100
AcDbEntity
  8
SK2
  6
CONTINUOUS
370
25
 62
7
100
AcDbLine
 10
38.54944903865421
 20
27.70138635773084
 30
0.0
 11
39.03296602576948
 21
28.18490334484611
 31
0.0
  0
LINE
  5
49C
330
1F
100
AcDbEntity
  8
SK2
  6
CONTINUOUS
370
25
 62
7
100
AcDbLine
 10
38.01911895276429
 20
27.59532034055286
 30
0.0
 11
38.6794126351762
 21
28.25561402296476
 31
0.0
  0
LINE
  5
49D
330
1F
100
AcDbEntity
  8
SK2
  6
CONTINUOUS
370
25
 62
7
100
AcDbLine
 10
37.48878886687438
 20
27.48925432337488
 30
0.0
 11
38.32585924458292
 21
28.32632470108342
 31
0.0
  0
LINE
  5
49E
330
1F
100
AcDbEntity
  8
SK2
  6
CONTINUOUS
370
25
 62
7
100
AcDbLine
 10
36.95845878098446
 20
27.3831883061969
 30
0.0
 11
37.97230585398964
 21
28.39703537920207
 31
0.0
  0
LINE
  5
49F
330
1F
100
AcDbEntity
  8
SK2
  6
CONTINUOUS
370
25
 62
7
100
AcDbLine
 10
36.42812869509455
 20
27.27712228901891
 30
0.0
 11
37.61875246339637
 21
28.46774605732073
 31
0.0
  0
LINE
  5
4A0
330
1F
100
AcDbEntity
  8
SK2
  6
CONTINUOUS
370
25
 62
7
100
AcDbLine
 10
35.89779860920463
 20
27.17105627184092
 30
0.0
 11
37.26519907280309
 21
28.53845673543939
 31
0.0
  0
LINE
  5
4A1
330
1F
100
AcDbEntity
  8
SK2
  6
CONTINUOUS
370
25
 62
7
100
AcDbLine
 10
35.36746852331472
 20
27.06499025466294
 30
0.0
 11
36.91164568220981
 21
28.60916741355804
 31
0.0
  0
LINE
  5
4A2
330
1F
100
AcDbEntity
  8
SK2
  6
CONTINUOUS
370
25
 62
7
100
AcDbLine
 10
35.0
 20
27.12178580006016
 30
0.0
 11
36.55809229161654
 21
28.6798780916767
 31
0.0
  0
LINE
  5
4A3
330
1F
100
AcDbEntity
  8
SK2
  6
CONTINUOUS
370
25
 62
7
100
AcDbLine
 10
35.0
 20
27.54604986877209
 30
0.0
 11
36.20453890102326
 21
28.75058876979535
 31
0.0
  0
LINE
  5
4A4
330
1F
100
AcDbEntity
  8
SK2
  6
CONTINUOUS
370
25
 62
7
100
AcDbLine
 10
35.0
 20
27.97031393748402
 30
0.0
 11
35.85098551042998
 21
28.821299447914
 31
0.0
  0
LINE
  5
4A5
330
1F
100
AcDbEntity
  8
SK2
  6
CONTINUOUS
370
25
 62
7
100
AcDbLine
 10
35.0
 20
28.39457800619595
 30
0.0
 11
35.49743211983671
 21
28.89201012603267
 31
0.0
  0
LINE
  5
4A6
330
1F
100
AcDbEntity
  8
SK2
  6
CONTINUOUS
370
25
 62
7
100
AcDbLine
 10
35.0
 20
28.81884207490788
 30
0.0
 11
35.14387872924343
 21
28.96272080415132
 31
0.0
  0
LINE
  5
4A7
330
1F
100
AcDbEntity
  8
SK2
  6
CONTINUOUS
370
25
 62
7
100
AcDbLine
 10
35.0
 20
27.36681810065348
 30
0.0
 11
35.31276795887791
 21
27.05405014177558
 31
0.0
  0
LINE
  5
4A8
330
1F
100
AcDbEntity
  8
SK2
  6
CONTINUOUS
370
25
 62
7
100
AcDbLine
 10
35.0
 20
27.79108216936542
 30
0.0
 11
35.66632134947118
 21
27.12476081989423
 31
0.0
  0
LINE
  5
4A9
330
1F
100
AcDbEntity
  8
SK2
  6
CONTINUOUS
370
25
 62
7
100
AcDbLine
 10
35.0
 20
28.21534623807734
 30
0.0
 11
36.01987474006446
 21
27.19547149801289
 31
0.0
  0
LINE
  5
4AA
330
1F
100
AcDbEntity
  8
SK2
  6
CONTINUOUS
370
25
 62
7
100
AcDbLine
 10
35.0
 20
28.63961030678927
 30
0.0
 11
36.37342813065773
 21
27.26618217613155
 31
0.0
  0
LINE
  5
4AB
330
1F
100
AcDbEntity
  8
SK2
  6
CONTINUOUS
370
25
 62
7
100
AcDbLine
 10
35.09047228187649
 20
28.9734020936247
 30
0.0
 11
36.726981521251
 21
27.3368928542502
 31
0.0
  0
LINE
  5
4AC
330
1F
100
AcDbEntity
  8
SK2
  6
CONTINUOUS
370
25
 62
7
100
AcDbLine
 10
35.62080236776642
 20
28.86733607644671
 30
0.0
 11
37.08053491184427
 21
27.40760353236886
 31
0.0
  0
LINE
  5
4AD
330
1F
100
AcDbEntity
  8
SK2
  6
CONTINUOUS
370
25
 62
7
100
AcDbLine
 10
36.15113245365633
 20
28.76127005926874
 30
0.0
 11
37.43408830243756
 21
27.47831421048751
 31
0.0
  0
LINE
  5
4AE
330
1F
100
AcDbEntity
  8
SK2
  6
CONTINUOUS
370
25
 62
7
100
AcDbLine
 10
36.68146253954625
 20
28.65520404209075
 30
0.0
 11
37.78764169303084
 21
27.54902488860616
 31
0.0
  0
LINE
  5
4AF
330
1F
100
AcDbEntity
  8
SK2
  6
CONTINUOUS
370
25
 62
7
100
AcDbLine
 10
37.21179262543617
 20
28.54913802491276
 30
0.0
 11
38.14119508362412
 21
27.61973556672483
 31
0.0
  0
LINE
  5
4B0
330
1F
100
AcDbEntity
  8
SK2
  6
CONTINUOUS
370
25
 62
7
100
AcDbLine
 10
37.7421227113261
 20
28.44307200773478
 30
0.0
 11
38.4947484742174
 21
27.69044624484348
 31
0.0
  0
LINE
  5
4B1
330
1F
100
AcDbEntity
  8
SK2
  6
CONTINUOUS
370
25
 62
7
100
AcDbLine
 10
38.27245279721601
 20
28.3370059905568
 30
0.0
 11
38.84830186481068
 21
27.76115692296213
 31
0.0
  0
LINE
  5
4B2
330
1F
100
AcDbEntity
  8
SK2
  6
CONTINUOUS
370
25
 62
7
100
AcDbLine
 10
38.80278288310593
 20
28.23093997337882
 30
0.0
 11
39.20185525540396
 21
27.83186760108079
 31
0.0
  0
LINE
  5
4B3
330
1F
100
AcDbEntity
  8
SK2
  6
CONTINUOUS
370
25
 62
7
100
AcDbLine
 10
39.33311296899586
 20
28.12487395620082
 30
0.0
 11
39.55540864599723
 21
27.90257827919945
 31
0.0
  0
LINE
  5
4B4
330
1F
100
AcDbEntity
  8
SK2
  6
CONTINUOUS
370
25
 62
7
100
AcDbLine
 10
39.86344305488577
 20
28.01880793902284
 30
0.0
 11
39.90896203659051
 21
27.9732889573181
 31
0.0
  0
TEXT
  5
4B5
330
1F
100
AcDbEntity
  8
SK2
  6
CONTINUOUS
370
25
 62
7
100
AcDbText
 10
17.375
 20
29.49149655
 30
0.0
 40
3.5
  1
40
 72
     1
 11
20.0
 21
29.49149655
 31
0.0
100
AcDbText
  0
LINE
  5
4B6
330
1F
100
AcDbEntity
  8
2
  6
CONTINUOUS
370
25
 62
7
100
AcDbLine
 10
34.968
 20
-15.2201087
 30
0.0
 11
34.968
 21
-28.92711953
 31
0.0
  0
LINE
  5
4B7
330
1F
100
AcDbEntity
  8
2
  6
CONTINUOUS
370
25
 62
7
100
AcDbLine
 10
37.468
 20
-28.92711953
 30
0.0
 11
37.468
 21
-18.532
 31
0.0
  0
LINE
  5
4B8
330
1F
100
AcDbEntity
  8
2
  6
CONTINUOUS
370
25
 62
7
100
AcDbLine
 10
19.04300000000001
 20
-27.92711953
 30
0.0
 11
44.468
 21
-27.92711953
 31
0.0
  0
LINE
  5
4B9
330
1F
100
AcDbEntity
  8
2
  6
CONTINUOUS
370
25
 62
7
100
AcDbLine
 10
34.968
 20
-27.92711953
 30
0.0
 11
29.968
 21
-28.92711953
 31
0.0
  0
LINE
  5
4BA
330
1F
100
AcDbEntity
  8
2
  6
CONTINUOUS
370
25
 62
7
100
AcDbLine
 10
29.968
 20
-28.92711953
 30
0.0
 11
29.968
 21
-26.92711953
 31
0.0
  0
LINE
  5
4BB
330
1F
100
AcDbEntity
  8
2
  6
CONTINUOUS
370
25
 62
7
100
AcDbLine
 10
29.968
 20
-26.92711953
 30
0.0
 11
34.968
 21
-27.92711953
 31
0.0
  0
LINE
  5
4BC
330
1F
100
AcDbEntity
  8
2
  6
CONTINUOUS
370
25
 62
7
100
AcDbLine
 10
34.54676900364477
 20
-28.01136572927105
 30
0.0
 11
34.68717933576318
 21
-27.87095539715263
 31
0.0
  0
LINE
  5
4BD
330
1F
100
AcDbEntity
  8
2
  6
CONTINUOUS
370
25
 62
7
100
AcDbLine
 10
34.01643891775486
 20
-28.11743174644903
 30
0.0
 11
34.33362594516991
 21
-27.80024471903398
 31
0.0
  0
LINE
  5
4BE
330
1F
100
AcDbEntity
  8
2
  6
CONTINUOUS
370
25
 62
7
100
AcDbLine
 10
33.48610883186495
 20
-28.22349776362701
 30
0.0
 11
33.98007255457664
 21
-27.72953404091533
 31
0.0
  0
LINE
  5
4BF
330
1F
100
AcDbEntity
  8
2
  6
CONTINUOUS
370
25
 62
7
100
AcDbLine
 10
32.95577874597503
 20
-28.329563780805
 30
0.0
 11
33.62651916398336
 21
-27.65882336279667
 31
0.0
  0
LINE
  5
4C0
330
1F
100
AcDbEntity
  8
2
  6
CONTINUOUS
370
25
 62
7
100
AcDbLine
 10
32.42544866008512
 20
-28.43562979798298
 30
0.0
 11
33.27296577339008
 21
-27.58811268467802
 31
0.0
  0
LINE
  5
4C1
330
1F
100
AcDbEntity
  8
2
  6
CONTINUOUS
370
25
 62
7
100
AcDbLine
 10
31.8951185741952
 20
-28.54169581516096
 30
0.0
 11
32.9194123827968
 21
-27.51740200655936
 31
0.0
  0
LINE
  5
4C2
330
1F
100
AcDbEntity
  8
2
  6
CONTINUOUS
370
25
 62
7
100
AcDbLine
 10
31.36478848830529
 20
-28.64776183233894
 30
0.0
 11
32.56585899220353
 21
-27.4466913284407
 31
0.0
  0
LINE
  5
4C3
330
1F
100
AcDbEntity
  8
2
  6
CONTINUOUS
370
25
 62
7
100
AcDbLine
 10
30.83445840241538
 20
-28.75382784951692
 30
0.0
 11
32.21230560161025
 21
-27.37598065032205
 31
0.0
  0
LINE
  5
4C4
330
1F
100
AcDbEntity
  8
2
  6
CONTINUOUS
370
25
 62
7
100
AcDbLine
 10
30.30412831652547
 20
-28.85989386669491
 30
0.0
 11
31.85875221101698
 21
-27.30526997220339
 31
0.0
  0
LINE
  5
4C5
330
1F
100
AcDbEntity
  8
2
  6
CONTINUOUS
370
25
 62
7
100
AcDbLine
 10
29.968
 20
-28.77175811450844
 30
0.0
 11
31.5051988204237
 21
-27.23455929408474
 31
0.0
  0
LINE
  5
4C6
330
1F
100
AcDbEntity
  8
2
  6
CONTINUOUS
370
25
 62
7
100
AcDbLine
 10
29.968
 20
-28.34749404579651
 30
0.0
 11
31.15164542983043
 21
-27.16384861596608
 31
0.0
  0
LINE
  5
4C7
330
1F
100
AcDbEntity
  8
2
  6
CONTINUOUS
370
25
 62
7
100
AcDbLine
 10
29.968
 20
-27.92322997708458
 30
0.0
 11
30.79809203923716
 21
-27.09313793784743
 31
0.0
  0
LINE
  5
4C8
330
1F
100
AcDbEntity
  8
2
  6
CONTINUOUS
370
25
 62
7
100
AcDbLine
 10
29.968
 20
-27.49896590837265
 30
0.0
 11
30.44453864864388
 21
-27.02242725972877
 31
0.0
  0
LINE
  5
4C9
330
1F
100
AcDbEntity
  8
2
  6
CONTINUOUS
370
25
 62
7
100
AcDbLine
 10
29.968
 20
-27.07470183966073
 30
0.0
 11
30.09098525805061
 21
-26.95171658161012
 31
0.0
  0
LINE
  5
4CA
330
1F
100
AcDbEntity
  8
2
  6
CONTINUOUS
370
25
 62
7
100
AcDbLine
 10
29.968
 20
-28.83932945197682
 30
0.0
 11
30.04115839835265
 21
-28.91248785032947
 31
0.0
  0
LINE
  5
4CB
330
1F
100
AcDbEntity
  8
2
  6
CONTINUOUS
370
25
 62
7
100
AcDbLine
 10
29.968
 20
-28.4150653832649
 30
0.0
 11
30.39471178894593
 21
-28.84177717221082
 31
0.0
  0
LINE
  5
4CC
330
1F
100
AcDbEntity
  8
2
  6
CONTINUOUS
370
25
 62
7
100
AcDbLine
 10
29.968
 20
-27.99080131455296
 30
0.0
 11
30.7482651795392
 21
-28.77106649409216
 31
0.0
  0
LINE
  5
4CD
330
1F
100
AcDbEntity
  8
2
  6
CONTINUOUS
370
25
 62
7
100
AcDbLine
 10
29.968
 20
-27.56653724584103
 30
0.0
 11
31.10181857013248
 21
-28.7003558159735
 31
0.0
  0
LINE
  5
4CE
330
1F
100
AcDbEntity
  8
2
  6
CONTINUOUS
370
25
 62
7
100
AcDbLine
 10
29.968
 20
-27.14227317712911
 30
0.0
 11
31.45537196072576
 21
-28.62964513785485
 31
0.0
  0
LINE
  5
4CF
330
1F
100
AcDbEntity
  8
2
  6
CONTINUOUS
370
25
 62
7
100
AcDbLine
 10
30.22938802697853
 20
-26.97939713539571
 30
0.0
 11
31.80892535131903
 21
-28.55893445973619
 31
0.0
  0
LINE
  5
4D0
330
1F
100
AcDbEntity
  8
2
  6
CONTINUOUS
370
25
 62
7
100
AcDbLine
 10
30.75971811286845
 20
-27.08546315257369
 30
0.0
 11
32.16247874191232
 21
-28.48822378161755
 31
0.0
  0
LINE
  5
4D1
330
1F
100
AcDbEntity
  8
2
  6
CONTINUOUS
370
25
 62
7
100
AcDbLine
 10
31.29004819875837
 20
-27.19152916975167
 30
0.0
 11
32.51603213250559
 21
-28.41751310349888
 31
0.0
  0
LINE
  5
4D2
330
1F
100
AcDbEntity
  8
2
  6
CONTINUOUS
370
25
 62
7
100
AcDbLine
 10
31.82037828464828
 20
-27.29759518692966
 30
0.0
 11
32.86958552309887
 21
-28.34680242538023
 31
0.0
  0
LINE
  5
4D3
330
1F
100
AcDbEntity
  8
2
  6
CONTINUOUS
370
25
 62
7
100
AcDbLine
 10
32.3507083705382
 20
-27.40366120410764
 30
0.0
 11
33.22313891369214
 21
-28.27609174726157
 31
0.0
  0
LINE
  5
4D4
330
1F
100
AcDbEntity
  8
2
  6
CONTINUOUS
370
25
 62
7
100
AcDbLine
 10
32.88103845642812
 20
-27.50972722128562
 30
0.0
 11
33.57669230428542
 21
-28.20538106914292
 31
0.0
  0
LINE
  5
4D5
330
1F
100
AcDbEntity
  8
2
  6
CONTINUOUS
370
25
 62
7
100
AcDbLine
 10
33.41136854231803
 20
-27.6157932384636
 30
0.0
 11
33.9302456948787
 21
-28.13467039102427
 31
0.0
  0
LINE
  5
4D6
330
1F
100
AcDbEntity
  8
2
  6
CONTINUOUS
370
25
 62
7
100
AcDbLine
 10
33.94169862820795
 20
-27.72185925564159
 30
0.0
 11
34.28379908547197
 21
-28.06395971290561
 31
0.0
  0
LINE
  5
4D7
330
1F
100
AcDbEntity
  8
2
  6
CONTINUOUS
370
25
 62
7
100
AcDbLine
 10
34.47202871409787
 20
-27.82792527281957
 30
0.0
 11
34.63735247606525
 21
-27.99324903478695
 31
0.0
  0
LINE
  5
4D8
330
1F
100
AcDbEntity
  8
2
  6
CONTINUOUS
370
25
 62
7
100
AcDbLine
 10
37.468
 20
-27.92711953
 30
0.0
 11
42.468
 21
-26.92711953
 31
0.0
  0
LINE
  5
4D9
330
1F
100
AcDbEntity
  8
2
  6
CONTINUOUS
370
25
 62
7
100
AcDbLine
 10
42.468
 20
-26.92711953
 30
0.0
 11
42.468
 21
-28.92711953
 31
0.0
  0
LINE
  5
4DA
330
1F
100
AcDbEntity
  8
2
  6
CONTINUOUS
370
25
 62
7
100
AcDbLine
 10
42.468
 20
-28.92711953
 30
0.0
 11
37.468
 21
-27.92711953
 31
0.0
  0
LINE
  5
4DB
330
1F
100
AcDbEntity
  8
2
  6
CONTINUOUS
370
25
 62
7
100
AcDbLine
 10
42.30054514353075
 20
-28.89362855870614
 30
0.0
 11
42.468
 21
-28.72617370223688
 31
0.0
  0
LINE
  5
4DC
330
1F
100
AcDbEntity
  8
2
  6
CONTINUOUS
370
25
 62
7
100
AcDbLine
 10
41.94699175293746
 20
-28.82291788058749
 30
0.0
 11
42.468
 21
-28.30190963352495
 31
0.0
  0
LINE
  5
4DD
330
1F
100
AcDbEntity
  8
2
  6
CONTINUOUS
370
25
 62
7
100
AcDbLine
 10
41.59343836234419
 20
-28.75220720246884
 30
0.0
 11
42.468
 21
-27.87764556481302
 31
0.0
  0
LINE
  5
4DE
330
1F
100
AcDbEntity
  8
2
  6
CONTINUOUS
370
25
 62
7
100
AcDbLine
 10
41.23988497175091
 20
-28.68149652435017
 30
0.0
 11
42.468
 21
-27.45338149610109
 31
0.0
  0
LINE
  5
4DF
330
1F
100
AcDbEntity
  8
2
  6
CONTINUOUS
370
25
 62
7
100
AcDbLine
 10
40.88633158115763
 20
-28.61078584623152
 30
0.0
 11
42.468
 21
-27.02911742738916
 31
0.0
  0
LINE
  5
4E0
330
1F
100
AcDbEntity
  8
2
  6
CONTINUOUS
370
25
 62
7
100
AcDbLine
 10
40.53277819056436
 20
-28.54007516811288
 30
0.0
 11
42.06516728584655
 21
-27.00768607283069
 31
0.0
  0
LINE
  5
4E1
330
1F
100
AcDbEntity
  8
2
  6
CONTINUOUS
370
25
 62
7
100
AcDbLine
 10
40.17922479997107
 20
-28.46936448999421
 30
0.0
 11
41.53483719995662
 21
-27.11375209000867
 31
0.0
  0
LINE
  5
4E2
330
1F
100
AcDbEntity
  8
2
  6
CONTINUOUS
370
25
 62
7
100
AcDbLine
 10
39.8256714093778
 20
-28.39865381187556
 30
0.0
 11
41.00450711406671
 21
-27.21981810718665
 31
0.0
  0
LINE
  5
4E3
330
1F
100
AcDbEntity
  8
2
  6
CONTINUOUS
370
25
 62
7
100
AcDbLine
 10
39.47211801878453
 20
-28.3279431337569
 30
0.0
 11
40.47417702817679
 21
-27.32588412436465
 31
0.0
  0
LINE
  5
4E4
330
1F
100
AcDbEntity
  8
2
  6
CONTINUOUS
370
25
 62
7
100
AcDbLine
 10
39.11856462819124
 20
-28.25723245563825
 30
0.0
 11
39.94384694228687
 21
-27.43195014154262
 31
0.0
  0
LINE
  5
4E5
330
1F
100
AcDbEntity
  8
2
  6
CONTINUOUS
370
25
 62
7
100
AcDbLine
 10
38.76501123759797
 20
-28.18652177751959
 30
0.0
 11
39.41351685639696
 21
-27.5380161587206
 31
0.0
  0
LINE
  5
4E6
330
1F
100
AcDbEntity
  8
2
  6
CONTINUOUS
370
25
 62
7
100
AcDbLine
 10
38.41145784700468
 20
-28.11581109940094
 30
0.0
 11
38.88318677050704
 21
-27.64408217589859
 31
0.0
  0
LINE
  5
4E7
330
1F
100
AcDbEntity
  8
2
  6
CONTINUOUS
370
25
 62
7
100
AcDbLine
 10
38.05790445641141
 20
-28.04510042128228
 30
0.0
 11
38.35285668461712
 21
-27.75014819307657
 31
0.0
  0
LINE
  5
4E8
330
1F
100
AcDbEntity
  8
2
  6
CONTINUOUS
370
25
 62
7
100
AcDbLine
 10
37.70435106581814
 20
-27.97438974316363
 30
0.0
 11
37.82252659872721
 21
-27.85621421025456
 31
0.0
  0
LINE
  5
4E9
330
1F
100
AcDbEntity
  8
2
  6
CONTINUOUS
370
25
 62
7
100
AcDbLine
 10
37.64899425864532
 20
-27.89092067827094
 30
0.0
 11
37.73949138796797
 21
-27.98141780759359
 31
0.0
  0
LINE
  5
4EA
330
1F
100
AcDbEntity
  8
2
  6
CONTINUOUS
370
25
 62
7
100
AcDbLine
 10
38.00254764923859
 20
-27.82021000015228
 30
0.0
 11
38.2698214738579
 21
-28.08748382477158
 31
0.0
  0
LINE
  5
4EB
330
1F
100
AcDbEntity
  8
2
  6
CONTINUOUS
370
25
 62
7
100
AcDbLine
 10
38.35610103983187
 20
-27.74949932203362
 30
0.0
 11
38.80015155974781
 21
-28.19354984194956
 31
0.0
  0
LINE
  5
4EC
330
1F
100
AcDbEntity
  8
2
  6
CONTINUOUS
370
25
 62
7
100
AcDbLine
 10
38.70965443042515
 20
-27.67878864391497
 30
0.0
 11
39.33048164563773
 21
-28.29961585912755
 31
0.0
  0
LINE
  5
4ED
330
1F
100
AcDbEntity
  8
2
  6
CONTINUOUS
370
25
 62
7
100
AcDbLine
 10
39.06320782101843
 20
-27.60807796579631
 30
0.0
 11
39.86081173152765
 21
-28.40568187630553
 31
0.0
  0
LINE
  5
4EE
330
1F
100
AcDbEntity
  8
2
  6
CONTINUOUS
370
25
 62
7
100
AcDbLine
 10
39.4167612116117
 20
-27.53736728767765
 30
0.0
 11
40.39114181741756
 21
-28.51174789348351
 31
0.0
  0
LINE
  5
4EF
330
1F
100
AcDbEntity
  8
2
  6
CONTINUOUS
370
25
 62
7
100
AcDbLine
 10
39.77031460220498
 20
-27.466656609559
 30
0.0
 11
40.92147190330749
 21
-28.6178139106615
 31
0.0
  0
LINE
  5
4F0
330
1F
100
AcDbEntity
  8
2
  6
CONTINUOUS
370
25
 62
7
100
AcDbLine
 10
40.12386799279827
 20
-27.39594593144035
 30
0.0
 11
41.45180198919741
 21
-28.72387992783948
 31
0.0
  0
LINE
  5
4F1
330
1F
100
AcDbEntity
  8
2
  6
CONTINUOUS
370
25
 62
7
100
AcDbLine
 10
40.47742138339154
 20
-27.32523525332169
 30
0.0
 11
41.98213207508732
 21
-28.82994594501746
 31
0.0
  0
LINE
  5
4F2
330
1F
100
AcDbEntity
  8
2
  6
CONTINUOUS
370
25
 62
7
100
AcDbLine
 10
40.83097477398482
 20
-27.25452457520304
 30
0.0
 11
42.468
 21
-28.89154980121821
 31
0.0
  0
LINE
  5
4F3
330
1F
100
AcDbEntity
  8
2
  6
CONTINUOUS
370
25
 62
7
100
AcDbLine
 10
41.18452816457809
 20
-27.18381389708438
 30
0.0
 11
42.468
 21
-28.46728573250628
 31
0.0
  0
LINE
  5
4F4
330
1F
100
AcDbEntity
  8
2
  6
CONTINUOUS
370
25
 62
7
100
AcDbLine
 10
41.53808155517137
 20
-27.11310321896572
 30
0.0
 11
42.468
 21
-28.04302166379435
 31
0.0
  0
LINE
  5
4F5
330
1F
100
AcDbEntity
  8
2
  6
CONTINUOUS
370
25
 62
7
100
AcDbLine
 10
41.89163494576465
 20
-27.04239254084708
 30
0.0
 11
42.468
 21
-27.61875759508242
 31
0.0
  0
LINE
  5
4F6
330
1F
100
AcDbEntity
  8
2
  6
CONTINUOUS
370
25
 62
7
100
AcDbLine
 10
42.24518833635793
 20
-26.97168186272842
 30
0.0
 11
42.468
 21
-27.19449352637049
 31
0.0
  0
TEXT
  5
4F7
330
1F
100
AcDbEntity
  8
2
  6
CONTINUOUS
370
25
 62
7
100
AcDbText
 10
21.0055
 20
-26.42711953
 30
0.0
 40
3.5
  1
2.5
 72
     1
 11
24.5055
 21
-26.42711953
 31
0.0
100
AcDbText
  0
LINE
  5
4F8
330
1F
100
AcDbEntity
  8
2
  6
CONTINUOUS
370
25
 62
7
100
AcDbLine
 10
0.0
 20
-8.0
 30
0.0
 11
-13.0
 21
-8.0
 31
0.0
  0
LINE
  5
4F9
330
1F
100
AcDbEntity
  8
2
  6
CONTINUOUS
370
25
 62
7
100
AcDbLine
 10
-13.0
 20
8.0
 30
0.0
 11
0.0000000000000018
 21
8.0
 31
0.0
  0
LINE
  5
4FA
330
1F
100
AcDbEntity
  8
2
  6
CONTINUOUS
370
25
 62
7
100
AcDbLine
 10
-12.0
 20
-15.0
 30
0.0
 11
-12.0
 21
15.0
 31
0.0
  0
LINE
  5
4FB
330
1F
100
AcDbEntity
  8
2
  6
CONTINUOUS
370
25
 62
7
100
AcDbLine
 10
-12.0
 20
-8.0
 30
0.0
 11
-11.0
 21
-13.0
 31
0.0
  0
LINE
  5
4FC
330
1F
100
AcDbEntity
  8
2
  6
CONTINUOUS
370
25
 62
7
100
AcDbLine
 10
-11.0
 20
-13.0
 30
0.0
 11
-13.0
 21
-13.0
 31
0.0
  0
LINE
  5
4FD
330
1F
100
AcDbEntity
  8
2
  6
CONTINUOUS
370
25
 62
7
100
AcDbLine
 10
-13.0
 20
-13.0
 30
0.0
 11
-12.0
 21
-8.0
 31
0.0
  0
LINE
  5
4FE
330
1F
100
AcDbEntity
  8
2
  6
CONTINUOUS
370
25
 62
7
100
AcDbLine
 10
-11.01675808900682
 20
-13.0
 30
0.0
 11
-11.00279301483447
 21
-12.98603492582765
 31
0.0
  0
LINE
  5
4FF
330
1F
100
AcDbEntity
  8
2
  6
CONTINUOUS
370
25
 62
7
100
AcDbLine
 10
-11.44102215771875
 20
-13.0
 30
0.0
 11
-11.07350369295312
 21
-12.63248153523438
 31
0.0
  0
LINE
  5
500
330
1F
100
AcDbEntity
  8
2
  6
CONTINUOUS
370
25
 62
7
100
AcDbLine
 10
-11.86528622643068
 20
-13.0
 30
0.0
 11
-11.14421437107178
 21
-12.2789281446411
 31
0.0
  0
LINE
  5
501
330
1F
100
AcDbEntity
  8
2
  6
CONTINUOUS
370
25
 62
7
100
AcDbLine
 10
-12.2895502951426
 20
-13.0
 30
0.0
 11
-11.21492504919043
 21
-11.92537475404783
 31
0.0
  0
LINE
  5
502
330
1F
100
AcDbEntity
  8
2
  6
CONTINUOUS
370
25
 62
7
100
AcDbLine
 10
-12.71381436385453
 20
-13.0
 30
0.0
 11
-11.28563572730909
 21
-11.57182136345456
 31
0.0
  0
LINE
  5
503
330
1F
100
AcDbEntity
  8
2
  6
CONTINUOUS
370
25
 62
7
100
AcDbLine
 10
-12.96548039185839
 20
-12.82740195929193
 30
0.0
 11
-11.35634640542774
 21
-11.21826797286128
 31
0.0
  0
LINE
  5
504
330
1F
100
AcDbEntity
  8
2
  6
CONTINUOUS
370
25
 62
7
100
AcDbLine
 10
-12.85941437468041
 20
-12.29707187340202
 30
0.0
 11
-11.4270570835464
 21
-10.86471458226801
 31
0.0
  0
LINE
  5
505
330
1F
100
AcDbEntity
  8
2
  6
CONTINUOUS
370
25
 62
7
100
AcDbLine
 10
-12.75334835750242
 20
-11.76674178751211
 30
0.0
 11
-11.49776776166505
 21
-10.51116119167474
 31
0.0
  0
LINE
  5
506
330
1F
100
AcDbEntity
  8
2
  6
CONTINUOUS
370
25
 62
7
100
AcDbLine
 10
-12.64728234032444
 20
-11.2364117016222
 30
0.0
 11
-11.56847843978371
 21
-10.15760780108146
 31
0.0
  0
LINE
  5
507
330
1F
100
AcDbEntity
  8
2
  6
CONTINUOUS
370
25
 62
7
100
AcDbLine
 10
-12.54121632314646
 20
-10.70608161573229
 30
0.0
 11
-11.63918911790236
 21
-9.804054410488192
 31
0.0
  0
LINE
  5
508
330
1F
100
AcDbEntity
  8
2
  6
CONTINUOUS
370
25
 62
7
100
AcDbLine
 10
-12.43515030596848
 20
-10.17575152984238
 30
0.0
 11
-11.70989979602101
 21
-9.450501019894917
 31
0.0
  0
LINE
  5
509
330
1F
100
AcDbEntity
  8
2
  6
CONTINUOUS
370
25
 62
7
100
AcDbLine
 10
-12.32908428879049
 20
-9.645421443952468
 30
0.0
 11
-11.78061047413967
 21
-9.096947629301646
 31
0.0
  0
LINE
  5
50A
330
1F
100
AcDbEntity
  8
2
  6
CONTINUOUS
370
25
 62
7
100
AcDbLine
 10
-12.22301827161251
 20
-9.11509135806256
 30
0.0
 11
-11.85132115225832
 21
-8.74339423870837
 31
0.0
  0
LINE
  5
50B
330
1F
100
AcDbEntity
  8
2
  6
CONTINUOUS
370
25
 62
7
100
AcDbLine
 10
-12.11695225443453
 20
-8.58476127217265
 30
0.0
 11
-11.92203183037698
 21
-8.3898408481151
 31
0.0
  0
LINE
  5
50C
330
1F
100
AcDbEntity
  8
2
  6
CONTINUOUS
370
25
 62
7
100
AcDbLine
 10
-12.01088623725655
 20
-8.054431186282741
 30
0.0
 11
-11.99274250849563
 21
-8.036287457521825
 31
0.0
  0
LINE
  5
50D
330
1F
100
AcDbEntity
  8
2
  6
CONTINUOUS
370
25
 62
7
100
AcDbLine
 10
-12.96669833240221
 20
-12.83349166201105
 30
0.0
 11
-12.80018999441326
 21
-13.0
 31
0.0
  0
LINE
  5
50E
330
1F
100
AcDbEntity
  8
2
  6
CONTINUOUS
370
25
 62
7
100
AcDbLine
 10
-12.89598765428356
 20
-12.47993827141777
 30
0.0
 11
-12.37592592570132
 21
-13.0
 31
0.0
  0
LINE
  5
50F
330
1F
100
AcDbEntity
  8
2
  6
CONTINUOUS
370
25
 62
7
100
AcDbLine
 10
-12.8252769761649
 20
-12.1263848808245
 30
0.0
 11
-11.9516618569894
 21
-13.0
 31
0.0
  0
LINE
  5
510
330
1F
100
AcDbEntity
  8
2
  6
CONTINUOUS
370
25
 62
7
100
AcDbLine
 10
-12.75456629804624
 20
-11.77283149023122
 30
0.0
 11
-11.52739778827747
 21
-13.0
 31
0.0
  0
LINE
  5
511
330
1F
100
AcDbEntity
  8
2
  6
CONTINUOUS
370
25
 62
7
100
AcDbLine
 10
-12.68385561992759
 20
-11.41927809963795
 30
0.0
 11
-11.10313371956554
 21
-13.0
 31
0.0
  0
LINE
  5
512
330
1F
100
AcDbEntity
  8
2
  6
CONTINUOUS
370
25
 62
7
100
AcDbLine
 10
-12.61314494180893
 20
-11.06572470904468
 30
0.0
 11
-11.0802825872866
 21
-12.59858706356702
 31
0.0
  0
LINE
  5
513
330
1F
100
AcDbEntity
  8
2
  6
CONTINUOUS
370
25
 62
7
100
AcDbLine
 10
-12.54243426369028
 20
-10.7121713184514
 30
0.0
 11
-11.18634860446458
 21
-12.06825697767711
 31
0.0
  0
LINE
  5
514
330
1F
100
AcDbEntity
  8
2
  6
CONTINUOUS
370
25
 62
7
100
AcDbLine
 10
-12.47172358557163
 20
-10.35861792785813
 30
0.0
 11
-11.29241462164256
 21
-11.5379268917872
 31
0.0
  0
LINE
  5
515
330
1F
100
AcDbEntity
  8
2
  6
CONTINUOUS
370
25
 62
7
100
AcDbLine
 10
-12.40101290745297
 20
-10.00506453726486
 30
0.0
 11
-11.39848063882054
 21
-11.00759680589729
 31
0.0
  0
LINE
  5
516
330
1F
100
AcDbEntity
  8
2
  6
CONTINUOUS
370
25
 62
7
100
AcDbLine
 10
-12.33030222933432
 20
-9.651511146671583
 30
0.0
 11
-11.50454665599852
 21
-10.47726672000738
 31
0.0
  0
LINE
  5
517
330
1F
100
AcDbEntity
  8
2
  6
CONTINUOUS
370
25
 62
7
100
AcDbLine
 10
-12.25959155121566
 20
-9.29795775607831
 30
0.0
 11
-11.61061267317651
 21
-9.946936634117467
 31
0.0
  0
LINE
  5
518
330
1F
100
AcDbEntity
  8
2
  6
CONTINUOUS
370
25
 62
7
100
AcDbLine
 10
-12.18888087309701
 20
-8.944404365485038
 30
0.0
 11
-11.71667869035449
 21
-9.416606548227556
 31
0.0
  0
LINE
  5
519
330
1F
100
AcDbEntity
  8
2
  6
CONTINUOUS
370
25
 62
7
100
AcDbLine
 10
-12.11817019497835
 20
-8.590850974891763
 30
0.0
 11
-11.82274470753247
 21
-8.886276462337648
 31
0.0
  0
LINE
  5
51A
330
1F
100
AcDbEntity
  8
2
  6
CONTINUOUS
370
25
 62
7
100
AcDbLine
 10
-12.0474595168597
 20
-8.237297584298494
 30
0.0
 11
-11.92881072471045
 21
-8.35594637644774
 31
0.0
  0
LINE
  5
51B
330
1F
100
AcDbEntity
  8
2
  6
CONTINUOUS
370
25
 62
7
100
AcDbLine
 10
-12.0
 20
8.0
 30
0.0
 11
-13.0
 21
13.0
 31
0.0
  0
LINE
  5
51C
330
1F
100
AcDbEntity
  8
2
  6
CONTINUOUS
370
25
 62
7
100
AcDbLine
 10
-13.0
 20
13.0
 30
0.0
 11
-11.0
 21
13.0
 31
0.0
  0
LINE
  5
51D
330
1F
100
AcDbEntity
  8
2
  6
CONTINUOUS
370
25
 62
7
100
AcDbLine
 10
-11.0
 20
13.0
 30
0.0
 11
-12.0
 21
8.0
 31
0.0
  0
LINE
  5
51E
330
1F
100
AcDbEntity
  8
2
  6
CONTINUOUS
370
25
 62
7
100
AcDbLine
 10
-12.06077921636209
 20
8.303896081810468
 30
0.0
 11
-11.90883117545686
 21
8.4558441227157
 31
0.0
  0
LINE
  5
51F
330
1F
100
AcDbEntity
  8
2
  6
CONTINUOUS
370
25
 62
7
100
AcDbLine
 10
-12.13148989448075
 20
8.657449472403743
 30
0.0
 11
-11.80276515827888
 21
8.98617420860561
 31
0.0
  0
LINE
  5
520
330
1F
100
AcDbEntity
  8
2
  6
CONTINUOUS
370
25
 62
7
100
AcDbLine
 10
-12.2022005725994
 20
9.011002862997016
 30
0.0
 11
-11.6966991411009
 21
9.516504294495519
 31
0.0
  0
LINE
  5
521
330
1F
100
AcDbEntity
  8
2
  6
CONTINUOUS
370
25
 62
7
100
AcDbLine
 10
-12.27291125071805
 20
9.364556253590289
 30
0.0
 11
-11.59063312392292
 21
10.04683438038543
 31
0.0
  0
LINE
  5
522
330
1F
100
AcDbEntity
  8
2
  6
CONTINUOUS
370
25
 62
7
100
AcDbLine
 10
-12.34362192883671
 20
9.71810964418356
 30
0.0
 11
-11.48456710674493
 21
10.57716446627534
 31
0.0
  0
LINE
  5
523
330
1F
100
AcDbEntity
  8
2
  6
CONTINUOUS
370
25
 62
7
100
AcDbLine
 10
-12.41433260695536
 20
10.07166303477683
 30
0.0
 11
-11.37850108956695
 21
11.10749455216525
 31
0.0
  0
LINE
  5
524
330
1F
100
AcDbEntity
  8
2
  6
CONTINUOUS
370
25
 62
7
100
AcDbLine
 10
-12.48504328507402
 20
10.42521642537011
 30
0.0
 11
-11.27243507238897
 21
11.63782463805516
 31
0.0
  0
LINE
  5
525
330
1F
100
AcDbEntity
  8
2
  6
CONTINUOUS
370
25
 62
7
100
AcDbLine
 10
-12.55575396319267
 20
10.77876981596338
 30
0.0
 11
-11.16636905521099
 21
12.16815472394507
 31
0.0
  0
LINE
  5
526
330
1F
100
AcDbEntity
  8
2
  6
CONTINUOUS
370
25
 62
7
100
AcDbLine
 10
-12.62646464131133
 20
11.13232320655665
 30
0.0
 11
-11.06030303803301
 21
12.69848480983498
 31
0.0
  0
LINE
  5
527
330
1F
100
AcDbEntity
  8
2
  6
CONTINUOUS
370
25
 62
7
100
AcDbLine
 10
-12.69717531942998
 20
11.48587659714993
 30
0.0
 11
-11.18305191657991
 21
13.0
 31
0.0
  0
LINE
  5
528
330
1F
100
AcDbEntity
  8
2
  6
CONTINUOUS
370
25
 62
7
100
AcDbLine
 10
-12.76788599754864
 20
11.8394299877432
 30
0.0
 11
-11.60731598529184
 21
13.0
 31
0.0
  0
LINE
  5
529
330
1F
100
AcDbEntity
  8
2
  6
CONTINUOUS
370
25
 62
7
100
AcDbLine
 10
-12.83859667566729
 20
12.19298337833647
 30
0.0
 11
-12.03158005400376
 21
13.0
 31
0.0
  0
LINE
  5
52A
330
1F
100
AcDbEntity
  8
2
  6
CONTINUOUS
370
25
 62
7
100
AcDbLine
 10
-12.90930735378595
 20
12.54653676892974
 30
0.0
 11
-12.45584412271569
 21
13.0
 31
0.0
  0
LINE
  5
52B
330
1F
100
AcDbEntity
  8
2
  6
CONTINUOUS
370
25
 62
7
100
AcDbLine
 10
-12.9800180319046
 20
12.90009015952302
 30
0.0
 11
-12.88010819142762
 21
13.0
 31
0.0
  0
LINE
  5
52C
330
1F
100
AcDbEntity
  8
2
  6
CONTINUOUS
370
25
 62
7
100
AcDbLine
 10
-12.06484969403153
 20
8.324248470157647
 30
0.0
 11
-11.95676687064565
 21
8.216165646771769
 31
0.0
  0
LINE
  5
52D
330
1F
100
AcDbEntity
  8
2
  6
CONTINUOUS
370
25
 62
7
100
AcDbLine
 10
-12.17091571120951
 20
8.854578556047558
 30
0.0
 11
-11.88605619252699
 21
8.56971903736504
 31
0.0
  0
LINE
  5
52E
330
1F
100
AcDbEntity
  8
2
  6
CONTINUOUS
370
25
 62
7
100
AcDbLine
 10
-12.27698172838749
 20
9.384908641937466
 30
0.0
 11
-11.81534551440834
 21
8.923272427958311
 31
0.0
  0
LINE
  5
52F
330
1F
100
AcDbEntity
  8
2
  6
CONTINUOUS
370
25
 62
7
100
AcDbLine
 10
-12.38304774556547
 20
9.915238727827376
 30
0.0
 11
-11.74463483628968
 21
9.276825818551586
 31
0.0
  0
LINE
  5
530
330
1F
100
AcDbEntity
  8
2
  6
CONTINUOUS
370
25
 62
7
100
AcDbLine
 10
-12.48911376274346
 20
10.44556881371729
 30
0.0
 11
-11.67392415817103
 21
9.63037920914486
 31
0.0
  0
LINE
  5
531
330
1F
100
AcDbEntity
  8
2
  6
CONTINUOUS
370
25
 62
7
100
AcDbLine
 10
-12.59517977992144
 20
10.9758988996072
 30
0.0
 11
-11.60321348005237
 21
9.983932599738132
 31
0.0
  0
LINE
  5
532
330
1F
100
AcDbEntity
  8
2
  6
CONTINUOUS
370
25
 62
7
100
AcDbLine
 10
-12.70124579709942
 20
11.5062289854971
 30
0.0
 11
-11.53250280193372
 21
10.33748599033141
 31
0.0
  0
LINE
  5
533
330
1F
100
AcDbEntity
  8
2
  6
CONTINUOUS
370
25
 62
7
100
AcDbLine
 10
-12.8073118142774
 20
12.03655907138701
 30
0.0
 11
-11.46179212381506
 21
10.69103938092468
 31
0.0
  0
LINE
  5
534
330
1F
100
AcDbEntity
  8
2
  6
CONTINUOUS
370
25
 62
7
100
AcDbLine
 10
-12.91337783145538
 20
12.56688915727692
 30
0.0
 11
-11.39108144569641
 21
11.04459277151796
 31
0.0
  0
LINE
  5
535
330
1F
100
AcDbEntity
  8
2
  6
CONTINUOUS
370
25
 62
7
100
AcDbLine
 10
-12.92222460546653
 20
13.0
 30
0.0
 11
-11.32037076757775
 21
11.39814616211123
 31
0.0
  0
LINE
  5
536
330
1F
100
AcDbEntity
  8
2
  6
CONTINUOUS
370
25
 62
7
100
AcDbLine
 10
-12.4979605367546
 20
13.0
 30
0.0
 11
-11.2496600894591
 21
11.7516995527045
 31
0.0
  0
LINE
  5
537
330
1F
100
AcDbEntity
  8
2
  6
CONTINUOUS
370
25
 62
7
100
AcDbLine
 10
-12.07369646804267
 20
13.0
 30
0.0
 11
-11.17894941134045
 21
12.10525294329777
 31
0.0
  0
LINE
  5
538
330
1F
100
AcDbEntity
  8
2
  6
CONTINUOUS
370
25
 62
7
100
AcDbLine
 10
-11.64943239933075
 20
13.0
 30
0.0
 11
-11.10823873322179
 21
12.45880633389105
 31
0.0
  0
LINE
  5
539
330
1F
100
AcDbEntity
  8
2
  6
CONTINUOUS
370
25
 62
7
100
AcDbLine
 10
-11.22516833061882
 20
13.0
 30
0.0
 11
-11.03752805510314
 21
12.81235972448432
 31
0.0
  0
TEXT
  5
53A
330
1F
100
AcDbEntity
  8
2
  6
CONTINUOUS
370
25
 62
7
100
AcDbText
 10
-13.5
 20
-0.0583333333333336
 30
0.0
 40
3.5
  1
16
 50
90.0
 72
     1
 11
-13.5
 21
2.275
 31
0.0
100
AcDbText
  0
CIRCLE
  5
53B
330
1F
100
AcDbEntity
  8
2
  6
CONTINUOUS
370
25
 62
7
100
AcDbCircle
 10
-15.25
 20
-2.625
 30
0.0
 40
1.4
  0
LINE
  5
53C
330
1F
100
AcDbEntity
  8
2
  6
CONTINUOUS
370
25
 62
7
100
AcDbLine
 10
-13.85
 20
-4.024999999999999
 30
0.0
 11
-16.65
 21
-1.224999999999999
 31
0.0
  0
LINE
  5
53D
330
1F
100
AcDbEntity
  8
4
  6
LONGDASH_DASH
370
25
 62
2
100
AcDbLine
 10
0.0
 20
0.0
 30
0.0
 11
40.0
 21
0.0
 31
0.0
  0
LINE
  5
53E
330
1F
100
AcDbEntity
  8
2
  6
CONTINUOUS
370
25
 62
7
100
AcDbLine
 10
40.0
 20
16.0
 30
0.0
 11
58.64084068090963
 21
38.21528885045036
 31
0.0
  0
LINE
  5
53F
330
1F
100
AcDbEntity
  8
2
  6
CONTINUOUS
370
25
 62
7
100
AcDbLine
 10
58.64084068090963
 20
38.21528885045036
 30
0.0
 11
72.06584068090963
 21
38.21528885045036
 31
0.0
  0
LINE
  5
540
330
1F
100
AcDbEntity
  8
2
  6
CONTINUOUS
370
25
 62
7
100
AcDbLine
 10
40.0
 20
16.0
 30
0.0
 11
39.67860619515673
 21
15.61697777844051
 31
0.0
  0
LINE
  5
541
330
1F
100
AcDbEntity
  8
2
  6
CONTINUOUS
370
25
 62
7
100
AcDbLine
 10
40.0
 20
16.0
 30
0.0
 11
42.44789360531372
 21
20.47300982528143
 31
0.0
  0
LINE
  5
542
330
1F
100
AcDbEntity
  8
2
  6
CONTINUOUS
370
25
 62
7
100
AcDbLine
 10
42.44789360531372
 20
20.47300982528143
 30
0.0
 11
43.97998249155167
 21
19.18743460590835
 31
0.0
  0
LINE
  5
543
330
1F
100
AcDbEntity
  8
2
  6
CONTINUOUS
370
25
 62
7
100
AcDbLine
 10
43.97998249155167
 20
19.18743460590835
 30
0.0
 11
40.0
 21
16.0
 31
0.0
  0
LINE
  5
544
330
1F
100
AcDbEntity
  8
2
  6
CONTINUOUS
370
25
 62
7
100
AcDbLine
 10
42.89756287741326
 20
18.32056100946857
 30
0.0
 11
43.86278056619396
 21
19.28577869824928
 31
0.0
  0
LINE
  5
545
330
1F
100
AcDbEntity
  8
2
  6
CONTINUOUS
370
25
 62
7
100
AcDbLine
 10
40.7670120351795
 20
16.61427423594675
 30
0.0
 11
43.63208938366115
 21
19.4793515844284
 31
0.0
  0
LINE
  5
546
330
1F
100
AcDbEntity
  8
2
  6
CONTINUOUS
370
25
 62
7
100
AcDbLine
 10
40.32821198713395
 20
16.59973825661313
 30
0.0
 11
43.40139820112834
 21
19.67292447060752
 31
0.0
  0
LINE
  5
547
330
1F
100
AcDbEntity
  8
2
  6
CONTINUOUS
370
25
 62
7
100
AcDbLine
 10
40.84104838166979
 20
17.5368387198609
 30
0.0
 11
43.17070701859554
 21
19.86649735678665
 31
0.0
  0
LINE
  5
548
330
1F
100
AcDbEntity
  8
2
  6
CONTINUOUS
370
25
 62
7
100
AcDbLine
 10
41.35388477620564
 20
18.47393918310868
 30
0.0
 11
42.94001583606274
 21
20.06007024296578
 31
0.0
  0
LINE
  5
549
330
1F
100
AcDbEntity
  8
2
  6
CONTINUOUS
370
25
 62
7
100
AcDbLine
 10
41.8667211707415
 20
19.41103964635647
 30
0.0
 11
42.70932465352993
 21
20.2536431291449
 31
0.0
  0
LINE
  5
54A
330
1F
100
AcDbEntity
  8
2
  6
CONTINUOUS
370
25
 62
7
100
AcDbLine
 10
42.37955756527735
 20
20.34814010960426
 30
0.0
 11
42.47863347099713
 21
20.44721601532403
 31
0.0
  0
LINE
  5
54B
330
1F
100
AcDbEntity
  8
2
  6
CONTINUOUS
370
25
 62
7
100
AcDbLine
 10
40.00101053329103
 20
16.00184653668351
 30
0.0
 11
40.00158649738409
 21
16.00127057259045
 31
0.0
  0
LINE
  5
54C
330
1F
100
AcDbEntity
  8
2
  6
CONTINUOUS
370
25
 62
7
100
AcDbLine
 10
40.15107089913477
 20
16.2760502395517
 30
0.0
 11
40.23717534931045
 21
16.18994578937602
 31
0.0
  0
LINE
  5
54D
330
1F
100
AcDbEntity
  8
2
  6
CONTINUOUS
370
25
 62
7
100
AcDbLine
 10
40.30113126497852
 20
16.55025394241988
 30
0.0
 11
40.4727642012368
 21
16.37862100616159
 31
0.0
  0
LINE
  5
54E
330
1F
100
AcDbEntity
  8
2
  6
CONTINUOUS
370
25
 62
7
100
AcDbLine
 10
40.45119163082226
 20
16.82445764528806
 30
0.0
 11
40.70835305316315
 21
16.56729622294717
 31
0.0
  0
LINE
  5
54F
330
1F
100
AcDbEntity
  8
2
  6
CONTINUOUS
370
25
 62
7
100
AcDbLine
 10
40.60125199666599
 20
17.09866134815626
 30
0.0
 11
40.94394190508952
 21
16.75597143973273
 31
0.0
  0
LINE
  5
550
330
1F
100
AcDbEntity
  8
2
  6
CONTINUOUS
370
25
 62
7
100
AcDbLine
 10
40.75131236250974
 20
17.37286505102445
 30
0.0
 11
41.17953075701588
 21
16.94464665651831
 31
0.0
  0
LINE
  5
551
330
1F
100
AcDbEntity
  8
2
  6
CONTINUOUS
370
25
 62
7
100
AcDbLine
 10
40.90137272835348
 20
17.64706875389264
 30
0.0
 11
41.41511960894223
 21
17.13332187330388
 31
0.0
  0
LINE
  5
552
330
1F
100
AcDbEntity
  8
2
  6
CONTINUOUS
370
25
 62
7
100
AcDbLine
 10
41.05143309419721
 20
17.92127245676083
 30
0.0
 11
41.6507084608686
 21
17.32199709008945
 31
0.0
  0
LINE
  5
553
330
1F
100
AcDbEntity
  8
2
  6
CONTINUOUS
370
25
 62
7
100
AcDbLine
 10
41.20149346004096
 20
18.19547615962901
 30
0.0
 11
41.88629731279495
 21
17.51067230687502
 31
0.0
  0
LINE
  5
554
330
1F
100
AcDbEntity
  8
2
  6
CONTINUOUS
370
25
 62
7
100
AcDbLine
 10
41.35155382588471
 20
18.4696798624972
 30
0.0
 11
42.12188616472131
 21
17.69934752366061
 31
0.0
  0
LINE
  5
555
330
1F
100
AcDbEntity
  8
2
  6
CONTINUOUS
370
25
 62
7
100
AcDbLine
 10
41.50161419172845
 20
18.74388356536539
 30
0.0
 11
42.35747501664768
 21
17.88802274044617
 31
0.0
  0
LINE
  5
556
330
1F
100
AcDbEntity
  8
2
  6
CONTINUOUS
370
25
 62
7
100
AcDbLine
 10
41.65167455757219
 20
19.01808726823358
 30
0.0
 11
42.59306386857403
 21
18.07669795723175
 31
0.0
  0
LINE
  5
557
330
1F
100
AcDbEntity
  8
2
  6
CONTINUOUS
370
25
 62
7
100
AcDbLine
 10
41.80173492341593
 20
19.29229097110177
 30
0.0
 11
42.82865272050039
 21
18.26537317401732
 31
0.0
  0
LINE
  5
558
330
1F
100
AcDbEntity
  8
2
  6
CONTINUOUS
370
25
 62
7
100
AcDbLine
 10
41.95179528925967
 20
19.56649467396996
 30
0.0
 11
43.06424157242675
 21
18.45404839080289
 31
0.0
  0
LINE
  5
559
330
1F
100
AcDbEntity
  8
2
  6
CONTINUOUS
370
25
 62
7
100
AcDbLine
 10
42.10185565510341
 20
19.84069837683816
 30
0.0
 11
43.29983042435311
 21
18.64272360758847
 31
0.0
  0
LINE
  5
55A
330
1F
100
AcDbEntity
  8
2
  6
CONTINUOUS
370
25
 62
7
100
AcDbLine
 10
42.25191602094716
 20
20.11490207970635
 30
0.0
 11
43.53541927627947
 21
18.83139882437403
 31
0.0
  0
LINE
  5
55B
330
1F
100
AcDbEntity
  8
2
  6
CONTINUOUS
370
25
 62
7
100
AcDbLine
 10
42.4019763867909
 20
20.38910578257453
 30
0.0
 11
43.77100812820582
 21
19.02007404115961
 31
0.0
  0
TEXT
  5
55C
330
1F
100
AcDbEntity
  8
2
  6
CONTINUOUS
370
25
 62
7
100
AcDbText
 10
60.3950073475763
 20
39.71528885045036
 30
0.0
 40
3.5
  1
R0.5
 72
     1
 11
65.35334068090964
 21
39.71528885045036
 31
0.0
100
AcDbText
  0
LINE
  5
55D
330
1F
100
AcDbEntity
  8
SK1
  6
CONTINUOUS
370
50
 62
4
100
AcDbLine
 10
0.0
 20
0.0
 30
0.0
 11
1.75
 21
0.0
 31
0.0
  0
LINE
  5
55E
330
1F
100
AcDbEntity
  8
SK1
  6
CONTINUOUS
370
50
 62
4
100
AcDbLine
 10
0.0
 20
0.0
 30
0.0
 11
0.0
 21
1.75
 31
0.0
  0
ARC
  5
55F
330
1F
100
AcDbEntity
  8
SK1
  6
CONTINUOUS
370
50
 62
4
100
AcDbCircle
 10
0.0
 20
0.0
 30
0.0
 40
1.75
100
AcDbArc
 50
0.0
 51
90.0
  0
LINE
  5
560
330
1F
100
AcDbEntity
  8
SK1
  6
CONTINUOUS
370
50
 62
4
100
AcDbLine
 10
0.0
 20
0.0
 30
0.0
 11
-1.75
 21
0.0
 31
0.0
  0
ARC
  5
561
330
1F
100
AcDbEntity
  8
SK1
  6
CONTINUOUS
370
50
 62
4
100
AcDbCircle
 10
0.0
 20
0.0
 30
0.0
 40
1.75
100
AcDbArc
 50
180.0
 51
270.0
  0
LINE
  5
562
330
1F
100
AcDbEntity
  8
SK1
  6
CONTINUOUS
370
50
 62
4
100
AcDbLine
 10
0.0
 20
-1.75
 30
0.0
 11
0.0
 21
0.0
 31
0.0
  0
ARC
  5
563
330
1F
100
AcDbEntity
  8
SK1
  6
CONTINUOUS
370
50
 62
4
100
AcDbCircle
 10
0.0
 20
0.0
 30
0.0
 40
1.75
100
AcDbArc
 50
270.0
 51
0.0
  0
ARC
  5
564
330
1F
100
AcDbEntity
  8
SK1
  6
CONTINUOUS
370
50
 62
4
100
AcDbCircle
 10
0.0
 20
0.0
 30
0.0
 40
1.75
100
AcDbArc
 50
90.0
 51
180.0
  0
LINE
  5
565
330
1F
100
AcDbEntity
  8
SK1
  6
CONTINUOUS
370
50
 62
4
100
AcDbLine
 10
-0.2228272525842667
 20
-1.73564731720198
 30
0.0
 11
0.0
 21
-1.512820064617713
 31
0.0
  0
LINE
  5
566
330
1F
100
AcDbEntity
  8
SK1
  6
CONTINUOUS
370
50
 62
4
100
AcDbLine
 10
1.512820064617712
 20
0.0
 30
0.0
 11
1.73564731720198
 21
0.2228272525842674
 31
0.0
  0
LINE
  5
567
330
1F
100
AcDbEntity
  8
SK1
  6
CONTINUOUS
370
50
 62
4
100
AcDbLine
 10
-0.4306961931812687
 20
-1.69602888438369
 30
0.0
 11
0.0
 21
-1.265332691202421
 31
0.0
  0
LINE
  5
568
330
1F
100
AcDbEntity
  8
SK1
  6
CONTINUOUS
370
50
 62
4
100
AcDbLine
 10
1.26533269120242
 20
0.0
 30
0.0
 11
1.696028884383689
 21
0.4306961931812696
 31
0.0
  0
LINE
  5
569
330
1F
100
AcDbEntity
  8
SK1
  6
CONTINUOUS
370
50
 62
4
100
AcDbLine
 10
-0.6185165956423545
 20
-1.636361913429485
 30
0.0
 11
0.0
 21
-1.01784531778713
 31
0.0
  0
LINE
  5
56A
330
1F
100
AcDbEntity
  8
SK1
  6
CONTINUOUS
370
50
 62
4
100
AcDbLine
 10
1.017845317787129
 20
0.0
 30
0.0
 11
1.636361913429484
 21
0.6185165956423557
 31
0.0
  0
LINE
  5
56B
330
1F
100
AcDbEntity
  8
SK1
  6
CONTINUOUS
370
50
 62
4
100
AcDbLine
 10
-0.7901448905372002
 20
-1.560502834909039
 30
0.0
 11
0.0
 21
-0.7703579443718382
 31
0.0
  0
LINE
  5
56C
330
1F
100
AcDbEntity
  8
SK1
  6
CONTINUOUS
370
50
 62
4
100
AcDbLine
 10
0.7703579443718377
 20
0.0
 30
0.0
 11
1.560502834909038
 21
0.7901448905372013
 31
0.0
  0
LINE
  5
56D
330
1F
100
AcDbEntity
  8
SK1
  6
CONTINUOUS
370
50
 62
4
100
AcDbLine
 10
-0.9478221678055315
 20
-1.470692738762079
 30
0.0
 11
0.0
 21
-0.5228705709565462
 31
0.0
  0
LINE
  5
56E
330
1F
100
AcDbEntity
  8
SK1
  6
CONTINUOUS
370
50
 62
4
100
AcDbLine
 10
0.5228705709565458
 20
0.0
 30
0.0
 11
1.470692738762078
 21
0.947822167805533
 31
0.0
  0
LINE
  5
56F
330
1F
100
AcDbEntity
  8
SK1
  6
CONTINUOUS
370
50
 62
4
100
AcDbLine
 10
-1.091570432884521
 20
-1.366953630425777
 30
0.0
 11
0.0
 21
-0.2753831975412551
 31
0.0
  0
LINE
  5
570
330
1F
100
AcDbEntity
  8
SK1
  6
CONTINUOUS
370
50
 62
4
100
AcDbLine
 10
0.2753831975412548
 20
0.0
 30
0.0
 11
1.366953630425776
 21
1.091570432884522
 31
0.0
  0
LINE
  5
571
330
1F
100
AcDbEntity
  8
SK1
  6
CONTINUOUS
370
50
 62
4
100
AcDbLine
 10
-1.222878354618355
 20
-1.25077417874432
 30
0.0
 11
0.0
 21
-0.0278958241259639
 31
0.0
  0
LINE
  5
572
330
1F
100
AcDbEntity
  8
SK1
  6
CONTINUOUS
370
50
 62
4
100
AcDbLine
 10
0.0278958241259639
 20
0.0
 30
0.0
 11
1.250774178744319
 21
1.222878354618356
 31
0.0
  0
LINE
  5
573
330
1F
100
AcDbEntity
  8
SK1
  6
CONTINUOUS
370
50
 62
4
100
AcDbLine
 10
-1.342159696286539
 20
-1.122568146997212
 30
0.0
 11
-0.2195915492893275
 21
0.0
 31
0.0
  0
LINE
  5
574
330
1F
100
AcDbEntity
  8
SK1
  6
CONTINUOUS
370
50
 62
4
100
AcDbLine
 10
0.0
 20
0.2195915492893277
 30
0.0
 11
1.122568146997211
 21
1.34215969628654
 31
0.0
  0
LINE
  5
575
330
1F
100
AcDbEntity
  8
SK1
  6
CONTINUOUS
370
50
 62
4
100
AcDbLine
 10
-1.448118327687437
 20
-0.9810394049828186
 30
0.0
 11
-0.4670789227046189
 21
0.0
 31
0.0
  0
LINE
  5
576
330
1F
100
AcDbEntity
  8
SK1
  6
CONTINUOUS
370
50
 62
4
100
AcDbLine
 10
0.0
 20
0.4670789227046193
 30
0.0
 11
0.9810394049828175
 21
1.448118327687438
 31
0.0
  0
LINE
  5
577
330
1F
100
AcDbEntity
  8
SK1
  6
CONTINUOUS
370
50
 62
4
100
AcDbLine
 10
-1.541670913484249
 20
-0.8271046173643402
 30
0.0
 11
-0.7145662961199095
 21
0.0
 31
0.0
  0
LINE
  5
578
330
1F
100
AcDbEntity
  8
SK1
  6
CONTINUOUS
370
50
 62
4
100
AcDbLine
 10
0.0
 20
0.71456629611991
 30
0.0
 11
0.8271046173643392
 21
1.54167091348425
 31
0.0
  0
LINE
  5
579
330
1F
100
AcDbEntity
  8
SK1
  6
CONTINUOUS
370
50
 62
4
100
AcDbLine
 10
-1.620815261757953
 20
-0.6587615922227528
 30
0.0
 11
-0.9620536695352009
 21
0.0
 31
0.0
  0
LINE
  5
57A
330
1F
100
AcDbEntity
  8
SK1
  6
CONTINUOUS
370
50
 62
4
100
AcDbLine
 10
0.0
 20
0.9620536695352015
 30
0.0
 11
0.6587615922227518
 21
1.620815261757954
 31
0.0
  0
LINE
  5
57B
330
1F
100
AcDbEntity
  8
SK1
  6
CONTINUOUS
370
50
 62
4
100
AcDbLine
 10
-1.683703122930369
 20
-0.474162079979876
 30
0.0
 11
-1.209541042950493
 21
0.0
 31
0.0
  0
LINE
  5
57C
330
1F
100
AcDbEntity
  8
SK1
  6
CONTINUOUS
370
50
 62
4
100
AcDbLine
 10
0.0
 20
1.209541042950494
 30
0.0
 11
0.474162079979875
 21
1.683703122930369
 31
0.0
  0
LINE
  5
57D
330
1F
100
AcDbEntity
  8
SK1
  6
CONTINUOUS
370
50
 62
4
100
AcDbLine
 10
-1.728018995657286
 20
-0.2709905792915031
 30
0.0
 11
-1.457028416365783
 21
0.0
 31
0.0
  0
LINE
  5
57E
330
1F
100
AcDbEntity
  8
SK1
  6
CONTINUOUS
370
50
 62
4
100
AcDbLine
 10
0.0
 20
1.457028416365784
 30
0.0
 11
0.2709905792915025
 21
1.728018995657286
 31
0.0
  0
LINE
  5
57F
330
1F
100
AcDbEntity
  8
SK1
  6
CONTINUOUS
370
50
 62
4
100
AcDbLine
 10
-1.748614153102194
 20
-0.0440983633211194
 30
0.0
 11
-1.704515789781075
 21
0.0
 31
0.0
  0
LINE
  5
580
330
1F
100
AcDbEntity
  8
SK1
  6
CONTINUOUS
370
50
 62
4
100
AcDbLine
 10
0.0
 20
1.704515789781075
 30
0.0
 11
0.0440983633211188
 21
1.748614153102194
 31
0.0
  0
LINE
  5
581
330
1F
100
AcDbEntity
  8
SK1
  6
CONTINUOUS
370
50
 62
4
100
AcDbLine
 10
-1.636134823963185
 20
-0.6191473609004006
 30
0.0
 11
-0.6191473609003987
 21
-1.636134823963186
 31
0.0
  0
LINE
  5
582
330
1F
100
AcDbEntity
  8
SK1
  6
CONTINUOUS
370
50
 62
4
100
AcDbLine
 10
-1.726365693564548
 20
-0.2814291178837463
 30
0.0
 11
-0.2814291178837454
 21
-1.726365693564548
 31
0.0
  0
LINE
  5
583
330
1F
100
AcDbEntity
  8
SK1
  6
CONTINUOUS
370
50
 62
4
100
AcDbLine
 10
-1.749665565688502
 20
-0.0106418723445003
 30
0.0
 11
-0.0106418723444989
 21
-1.749665565688503
 31
0.0
  0
LINE
  5
584
330
1F
100
AcDbEntity
  8
SK1
  6
CONTINUOUS
370
50
 62
4
100
AcDbLine
 10
-1.512820064617711
 20
0.0
 30
0.0
 11
0.0
 21
-1.51282006461771
 31
0.0
  0
LINE
  5
585
330
1F
100
AcDbEntity
  8
SK1
  6
CONTINUOUS
370
50
 62
4
100
AcDbLine
 10
-1.265332691202419
 20
0.0
 30
0.0
 11
0.0
 21
-1.265332691202418
 31
0.0
  0
LINE
  5
586
330
1F
100
AcDbEntity
  8
SK1
  6
CONTINUOUS
370
50
 62
4
100
AcDbLine
 10
-1.017845317787128
 20
0.0
 30
0.0
 11
0.0
 21
-1.017845317787128
 31
0.0
  0
LINE
  5
587
330
1F
100
AcDbEntity
  8
SK1
  6
CONTINUOUS
370
50
 62
4
100
AcDbLine
 10
-0.7703579443718372
 20
0.0
 30
0.0
 11
0.0
 21
-0.7703579443718369
 31
0.0
  0
LINE
  5
588
330
1F
100
AcDbEntity
  8
SK1
  6
CONTINUOUS
370
50
 62
4
100
AcDbLine
 10
-0.5228705709565455
 20
0.0
 30
0.0
 11
0.0
 21
-0.5228705709565453
 31
0.0
  0
LINE
  5
589
330
1F
100
AcDbEntity
  8
SK1
  6
CONTINUOUS
370
50
 62
4
100
AcDbLine
 10
-0.2753831975412538
 20
0.0
 30
0.0
 11
0.0
 21
-0.2753831975412537
 31
0.0
  0
LINE
  5
58A
330
1F
100
AcDbEntity
  8
SK1
  6
CONTINUOUS
370
50
 62
4
100
AcDbLine
 10
-0.027895824125963
 20
0.0
 30
0.0
 11
0.0
 21
-0.027895824125963
 31
0.0
  0
LINE
  5
58B
330
1F
100
AcDbEntity
  8
SK1
  6
CONTINUOUS
370
50
 62
4
100
AcDbLine
 10
0.0
 20
0.219591549289329
 30
0.0
 11
0.2195915492893291
 21
0.0
 31
0.0
  0
LINE
  5
58C
330
1F
100
AcDbEntity
  8
SK1
  6
CONTINUOUS
370
50
 62
4
100
AcDbLine
 10
0.0
 20
0.4670789227046202
 30
0.0
 11
0.4670789227046204
 21
0.0
 31
0.0
  0
LINE
  5
58D
330
1F
100
AcDbEntity
  8
SK1
  6
CONTINUOUS
370
50
 62
4
100
AcDbLine
 10
0.0
 20
0.7145662961199113
 30
0.0
 11
0.7145662961199116
 21
0.0
 31
0.0
  0
LINE
  5
58E
330
1F
100
AcDbEntity
  8
SK1
  6
CONTINUOUS
370
50
 62
4
100
AcDbLine
 10
0.0
 20
0.9620536695352029
 30
0.0
 11
0.9620536695352035
 21
0.0
 31
0.0
  0
LINE
  5
58F
330
1F
100
AcDbEntity
  8
SK1
  6
CONTINUOUS
370
50
 62
4
100
AcDbLine
 10
0.0
 20
1.209541042950494
 30
0.0
 11
1.209541042950495
 21
0.0
 31
0.0
  0
LINE
  5
590
330
1F
100
AcDbEntity
  8
SK1
  6
CONTINUOUS
370
50
 62
4
100
AcDbLine
 10
0.0
 20
1.457028416365785
 30
0.0
 11
1.457028416365786
 21
0.0
 31
0.0
  0
LINE
  5
591
330
1F
100
AcDbEntity
  8
SK1
  6
CONTINUOUS
370
50
 62
4
100
AcDbLine
 10
0.0
 20
1.704515789781076
 30
0.0
 11
1.704515789781077
 21
0.0
 31
0.0
  0
LINE
  5
592
330
1F
100
AcDbEntity
  8
SK1
  6
CONTINUOUS
370
50
 62
4
100
AcDbLine
 10
0.2154338419356704
 20
1.736569321260697
 30
0.0
 11
1.736569321260697
 21
0.2154338419356714
 31
0.0
  0
LINE
  5
593
330
1F
100
AcDbEntity
  8
SK1
  6
CONTINUOUS
370
50
 62
4
100
AcDbLine
 10
0.5328328472899302
 20
1.666657689321729
 30
0.0
 11
1.666657689321728
 21
0.5328328472899322
 31
0.0
  0
LINE
  5
594
330
1F
100
AcDbEntity
  8
SK1
  6
CONTINUOUS
370
50
 62
4
100
AcDbLine
 10
1.040098749056744
 20
1.406879160970207
 30
0.0
 11
1.406879160970204
 21
1.040098749056747
 31
0.0
  0
LINE
  5
595
330
1F
100
AcDbEntity
  8
2
  6
CONTINUOUS
370
25
 62
7
100
AcDbLine
 10
40.0
 20
16.0
 30
0.0
 11
21.0
 21
16.0
 31
0.0
  0
LINE
  5
596
330
1F
100
AcDbEntity
  8
2
  6
CONTINUOUS
370
25
 62
7
100
AcDbLine
 10
40.0
 20
16.0
 30
0.0
 11
40.0
 21
35.0
 31
0.0
  0
ARC
  5
597
330
1F
100
AcDbEntity
  8
2
  6
CONTINUOUS
370
25
 62
7
100
AcDbCircle
 10
40.0
 20
16.0
 30
0.0
 40
18.0
100
AcDbArc
 50
90.0
 51
180.0
  0
LINE
  5
598
330
1F
100
AcDbEntity
  8
2
  6
CONTINUOUS
370
25
 62
7
100
AcDbLine
 10
22.0
 20
16.0
 30
0.0
 11
21.70413647389023
 21
21.09042874165997
 31
0.0
  0
LINE
  5
599
330
1F
100
AcDbEntity
  8
2
  6
CONTINUOUS
370
25
 62
7
100
AcDbLine
 10
21.70413647389023
 20
21.09042874165997
 30
0.0
 11
23.68475241499866
 21
20.81265096388219
 31
0.0
  0
LINE
  5
59A
330
1F
100
AcDbEntity
  8
2
  6
CONTINUOUS
370
25
 62
7
100
AcDbLine
 10
23.68475241499866
 20
20.81265096388219
 30
0.0
 11
22.0
 21
16.0
 31
0.0
  0
LINE
  5
59B
330
1F
100
AcDbEntity
  8
2
  6
CONTINUOUS
370
25
 62
7
100
AcDbLine
 10
21.98707747598158
 20
16.22233625260639
 30
0.0
 11
22.12671536044855
 21
16.36197413707336
 31
0.0
  0
LINE
  5
59C
330
1F
100
AcDbEntity
  8
2
  6
CONTINUOUS
370
25
 62
7
100
AcDbLine
 10
21.96377308455041
 20
16.62329592988714
 30
0.0
 11
22.3552329748113
 21
17.01475582014804
 31
0.0
  0
LINE
  5
59D
330
1F
100
AcDbEntity
  8
2
  6
CONTINUOUS
370
25
 62
7
100
AcDbLine
 10
21.94046869311924
 20
17.0242556071679
 30
0.0
 11
22.58375058917406
 21
17.66753750322272
 31
0.0
  0
LINE
  5
59E
330
1F
100
AcDbEntity
  8
2
  6
CONTINUOUS
370
25
 62
7
100
AcDbLine
 10
21.91716430168807
 20
17.42521528444866
 30
0.0
 11
22.8122682035368
 21
18.32031918629739
 31
0.0
  0
LINE
  5
59F
330
1F
100
AcDbEntity
  8
2
  6
CONTINUOUS
370
25
 62
7
100
AcDbLine
 10
21.8938599102569
 20
17.82617496172942
 30
0.0
 11
23.04078581789956
 21
18.97310086937208
 31
0.0
  0
LINE
  5
5A0
330
1F
100
AcDbEntity
  8
2
  6
CONTINUOUS
370
25
 62
7
100
AcDbLine
 10
21.87055551882573
 20
18.22713463901018
 30
0.0
 11
23.26930343226231
 21
19.62588255244675
 31
0.0
  0
LINE
  5
5A1
330
1F
100
AcDbEntity
  8
2
  6
CONTINUOUS
370
25
 62
7
100
AcDbLine
 10
21.84725112739456
 20
18.62809431629094
 30
0.0
 11
23.49782104662506
 21
20.27866423552144
 31
0.0
  0
LINE
  5
5A2
330
1F
100
AcDbEntity
  8
2
  6
CONTINUOUS
370
25
 62
7
100
AcDbLine
 10
21.82394673596339
 20
19.02905399357169
 30
0.0
 11
23.61704021848755
 21
20.82214747609585
 31
0.0
  0
LINE
  5
5A3
330
1F
100
AcDbEntity
  8
2
  6
CONTINUOUS
370
25
 62
7
100
AcDbLine
 10
21.80064234453222
 20
19.43001367085245
 30
0.0
 11
23.24495975674026
 21
20.87433108306049
 31
0.0
  0
LINE
  5
5A4
330
1F
100
AcDbEntity
  8
2
  6
CONTINUOUS
370
25
 62
7
100
AcDbLine
 10
21.77733795310105
 20
19.83097334813321
 30
0.0
 11
22.87287929499297
 21
20.92651469002513
 31
0.0
  0
LINE
  5
5A5
330
1F
100
AcDbEntity
  8
2
  6
CONTINUOUS
370
25
 62
7
100
AcDbLine
 10
21.75403356166988
 20
20.23193302541397
 30
0.0
 11
22.50079883324567
 21
20.97869829698976
 31
0.0
  0
LINE
  5
5A6
330
1F
100
AcDbEntity
  8
2
  6
CONTINUOUS
370
25
 62
7
100
AcDbLine
 10
21.73072917023871
 20
20.63289270269473
 30
0.0
 11
22.12871837149838
 21
21.03088190395439
 31
0.0
  0
LINE
  5
5A7
330
1F
100
AcDbEntity
  8
2
  6
CONTINUOUS
370
25
 62
7
100
AcDbLine
 10
21.70742477880754
 20
21.03385237997548
 30
0.0
 11
21.75663790975109
 21
21.08306551091903
 31
0.0
  0
LINE
  5
5A8
330
1F
100
AcDbEntity
  8
2
  6
CONTINUOUS
370
25
 62
7
100
AcDbLine
 10
21.9886601373106
 20
16.19510604676297
 30
0.0
 11
22.04764988478618
 21
16.13611629928739
 31
0.0
  0
LINE
  5
5A9
330
1F
100
AcDbEntity
  8
2
  6
CONTINUOUS
370
25
 62
7
100
AcDbLine
 10
21.96247960628691
 20
16.6455506464986
 30
0.0
 11
22.15765997230559
 21
16.45037028047991
 31
0.0
  0
LINE
  5
5AA
330
1F
100
AcDbEntity
  8
2
  6
CONTINUOUS
370
25
 62
7
100
AcDbLine
 10
21.93629907526323
 20
17.0959952462342
 30
0.0
 11
22.267670059825
 21
16.76462426167242
 31
0.0
  0
LINE
  5
5AB
330
1F
100
AcDbEntity
  8
2
  6
CONTINUOUS
370
25
 62
7
100
AcDbLine
 10
21.91011854423954
 20
17.54643984596982
 30
0.0
 11
22.37768014734441
 21
17.07887824286495
 31
0.0
  0
LINE
  5
5AC
330
1F
100
AcDbEntity
  8
2
  6
CONTINUOUS
370
25
 62
7
100
AcDbLine
 10
21.88393801321586
 20
17.99688444570542
 30
0.0
 11
22.48769023486382
 21
17.39313222405746
 31
0.0
  0
LINE
  5
5AD
330
1F
100
AcDbEntity
  8
2
  6
CONTINUOUS
370
25
 62
7
100
AcDbLine
 10
21.85775748219217
 20
18.44732904544104
 30
0.0
 11
22.59770032238323
 21
17.70738620524999
 31
0.0
  0
LINE
  5
5AE
330
1F
100
AcDbEntity
  8
2
  6
CONTINUOUS
370
25
 62
7
100
AcDbLine
 10
21.83157695116849
 20
18.89777364517665
 30
0.0
 11
22.70771040990263
 21
18.0216401864425
 31
0.0
  0
LINE
  5
5AF
330
1F
100
AcDbEntity
  8
2
  6
CONTINUOUS
370
25
 62
7
100
AcDbLine
 10
21.80539642014481
 20
19.34821824491226
 30
0.0
 11
22.81772049742204
 21
18.33589416763503
 31
0.0
  0
LINE
  5
5B0
330
1F
100
AcDbEntity
  8
2
  6
CONTINUOUS
370
25
 62
7
100
AcDbLine
 10
21.77921588912113
 20
19.79866284464786
 30
0.0
 11
22.92773058494145
 21
18.65014814882754
 31
0.0
  0
LINE
  5
5B1
330
1F
100
AcDbEntity
  8
2
  6
CONTINUOUS
370
25
 62
7
100
AcDbLine
 10
21.75303535809744
 20
20.24910744438348
 30
0.0
 11
23.03774067246086
 21
18.96440213002007
 31
0.0
  0
LINE
  5
5B2
330
1F
100
AcDbEntity
  8
2
  6
CONTINUOUS
370
25
 62
7
100
AcDbLine
 10
21.72685482707375
 20
20.69955204411909
 30
0.0
 11
23.14775075998026
 21
19.27865611121259
 31
0.0
  0
LINE
  5
5B3
330
1F
100
AcDbEntity
  8
2
  6
CONTINUOUS
370
25
 62
7
100
AcDbLine
 10
21.76939452038994
 20
21.08127641951484
 30
0.0
 11
23.25776084749967
 21
19.59291009240511
 31
0.0
  0
LINE
  5
5B4
330
1F
100
AcDbEntity
  8
2
  6
CONTINUOUS
370
25
 62
7
100
AcDbLine
 10
22.26286723895221
 20
21.01206776966449
 30
0.0
 11
23.36777093501908
 21
19.90716407359763
 31
0.0
  0
LINE
  5
5B5
330
1F
100
AcDbEntity
  8
2
  6
CONTINUOUS
370
25
 62
7
100
AcDbLine
 10
22.75633995751449
 20
20.94285911981414
 30
0.0
 11
23.47778102253849
 21
20.22141805479015
 31
0.0
  0
LINE
  5
5B6
330
1F
100
AcDbEntity
  8
2
  6
CONTINUOUS
370
25
 62
7
100
AcDbLine
 10
23.24981267607676
 20
20.8736504699638
 30
0.0
 11
23.58779111005789
 21
20.53567203598267
 31
0.0
  0
LINE
  5
5B7
330
1F
100
AcDbEntity
  8
2
  6
CONTINUOUS
370
25
 62
7
100
AcDbLine
 10
40.0
 20
34.0
 30
0.0
 11
35.18734903611781
 21
32.31524758500134
 31
0.0
  0
LINE
  5
5B8
330
1F
100
AcDbEntity
  8
2
  6
CONTINUOUS
370
25
 62
7
100
AcDbLine
 10
35.18734903611781
 20
32.31524758500134
 30
0.0
 11
34.90957125834004
 21
34.29586352610977
 31
0.0
  0
LINE
  5
5B9
330
1F
100
AcDbEntity
  8
2
  6
CONTINUOUS
370
25
 62
7
100
AcDbLine
 10
34.90957125834004
 20
34.29586352610977
 30
0.0
 11
40.0
 21
34.0
 31
0.0
  0
LINE
  5
5BA
330
1F
100
AcDbEntity
  8
2
  6
CONTINUOUS
370
25
 62
7
100
AcDbLine
 10
39.63802586292654
 20
33.87328463955141
 30
0.0
 11
39.77766374739355
 21
34.01292252401842
 31
0.0
  0
LINE
  5
5BB
330
1F
100
AcDbEntity
  8
2
  6
CONTINUOUS
370
25
 62
7
100
AcDbLine
 10
38.98524417985185
 20
33.64476702518866
 30
0.0
 11
39.37670407011279
 21
34.03622691544959
 31
0.0
  0
LINE
  5
5BC
330
1F
100
AcDbEntity
  8
2
  6
CONTINUOUS
370
25
 62
7
100
AcDbLine
 10
38.33246249677717
 20
33.41624941082591
 30
0.0
 11
38.97574439283202
 21
34.05953130688076
 31
0.0
  0
LINE
  5
5BD
330
1F
100
AcDbEntity
  8
2
  6
CONTINUOUS
370
25
 62
7
100
AcDbLine
 10
37.67968081370248
 20
33.18773179646315
 30
0.0
 11
38.57478471555125
 21
34.08283569831192
 31
0.0
  0
LINE
  5
5BE
330
1F
100
AcDbEntity
  8
2
  6
CONTINUOUS
370
25
 62
7
100
AcDbLine
 10
37.02689913062779
 20
32.9592141821004
 30
0.0
 11
38.17382503827049
 21
34.10614008974311
 31
0.0
  0
LINE
  5
5BF
330
1F
100
AcDbEntity
  8
2
  6
CONTINUOUS
370
25
 62
7
100
AcDbLine
 10
36.37411744755311
 20
32.73069656773765
 30
0.0
 11
37.77286536098973
 21
34.12944448117427
 31
0.0
  0
LINE
  5
5C0
330
1F
100
AcDbEntity
  8
2
  6
CONTINUOUS
370
25
 62
7
100
AcDbLine
 10
35.72133576447843
 20
32.50217895337489
 30
0.0
 11
37.37190568370897
 21
34.15274887260544
 31
0.0
  0
LINE
  5
5C1
330
1F
100
AcDbEntity
  8
2
  6
CONTINUOUS
370
25
 62
7
100
AcDbLine
 10
35.17785252390414
 20
32.38295978151254
 30
0.0
 11
36.9709460064282
 21
34.17605326403661
 31
0.0
  0
LINE
  5
5C2
330
1F
100
AcDbEntity
  8
2
  6
CONTINUOUS
370
25
 62
7
100
AcDbLine
 10
35.1256689169395
 20
32.75504024325983
 30
0.0
 11
36.56998632914745
 21
34.19935765546778
 31
0.0
  0
LINE
  5
5C3
330
1F
100
AcDbEntity
  8
2
  6
CONTINUOUS
370
25
 62
7
100
AcDbLine
 10
35.07348530997486
 20
33.12712070500712
 30
0.0
 11
36.16902665186669
 21
34.22266204689895
 31
0.0
  0
LINE
  5
5C4
330
1F
100
AcDbEntity
  8
2
  6
CONTINUOUS
370
25
 62
7
100
AcDbLine
 10
35.02130170301022
 20
33.49920116675441
 30
0.0
 11
35.76806697458593
 21
34.24596643833012
 31
0.0
  0
LINE
  5
5C5
330
1F
100
AcDbEntity
  8
2
  6
CONTINUOUS
370
25
 62
7
100
AcDbLine
 10
34.9691180960456
 20
33.87128162850172
 30
0.0
 11
35.36710729730516
 21
34.26927082976128
 31
0.0
  0
LINE
  5
5C6
330
1F
100
AcDbEntity
  8
2
  6
CONTINUOUS
370
25
 62
7
100
AcDbLine
 10
34.91693448908097
 20
34.24336209024902
 30
0.0
 11
34.96614762002441
 21
34.29257522119246
 31
0.0
  0
LINE
  5
5C7
330
1F
100
AcDbEntity
  8
2
  6
CONTINUOUS
370
25
 62
7
100
AcDbLine
 10
35.12541740323099
 20
32.75683359067758
 30
0.0
 11
35.4685604488317
 21
32.41369054507688
 31
0.0
  0
LINE
  5
5C8
330
1F
100
AcDbEntity
  8
2
  6
CONTINUOUS
370
25
 62
7
100
AcDbLine
 10
35.05620875338064
 20
33.25030630923986
 30
0.0
 11
35.78281443002422
 21
32.52370063259629
 31
0.0
  0
LINE
  5
5C9
330
1F
100
AcDbEntity
  8
2
  6
CONTINUOUS
370
25
 62
7
100
AcDbLine
 10
34.9870001035303
 20
33.74377902780213
 30
0.0
 11
36.09706841121674
 21
32.63371072011569
 31
0.0
  0
LINE
  5
5CA
330
1F
100
AcDbEntity
  8
2
  6
CONTINUOUS
370
25
 62
7
100
AcDbLine
 10
34.91779145367995
 20
34.23725174636441
 30
0.0
 11
36.41132239240926
 21
32.7437208076351
 31
0.0
  0
LINE
  5
5CB
330
1F
100
AcDbEntity
  8
2
  6
CONTINUOUS
370
25
 62
7
100
AcDbLine
 10
35.3065147045689
 20
34.27279256418739
 30
0.0
 11
36.72557637360179
 21
32.85373089515451
 31
0.0
  0
LINE
  5
5CC
330
1F
100
AcDbEntity
  8
2
  6
CONTINUOUS
370
25
 62
7
100
AcDbLine
 10
35.75695930430452
 20
34.24661203316371
 30
0.0
 11
37.03983035479432
 21
32.96374098267391
 31
0.0
  0
LINE
  5
5CD
330
1F
100
AcDbEntity
  8
2
  6
CONTINUOUS
370
25
 62
7
100
AcDbLine
 10
36.20740390404013
 20
34.22043150214002
 30
0.0
 11
37.35408433598683
 21
33.07375107019332
 31
0.0
  0
LINE
  5
5CE
330
1F
100
AcDbEntity
  8
2
  6
CONTINUOUS
370
25
 62
7
100
AcDbLine
 10
36.65784850377575
 20
34.19425097111634
 30
0.0
 11
37.66833831717936
 21
33.18376115771273
 31
0.0
  0
LINE
  5
5CF
330
1F
100
AcDbEntity
  8
2
  6
CONTINUOUS
370
25
 62
7
100
AcDbLine
 10
37.10829310351136
 20
34.16807044009266
 30
0.0
 11
37.98259229837188
 21
33.29377124523214
 31
0.0
  0
LINE
  5
5D0
330
1F
100
AcDbEntity
  8
2
  6
CONTINUOUS
370
25
 62
7
100
AcDbLine
 10
37.55873770324698
 20
34.14188990906896
 30
0.0
 11
38.2968462795644
 21
33.40378133275155
 31
0.0
  0
LINE
  5
5D1
330
1F
100
AcDbEntity
  8
2
  6
CONTINUOUS
370
25
 62
7
100
AcDbLine
 10
38.00918230298261
 20
34.11570937804528
 30
0.0
 11
38.61110026075693
 21
33.51379142027096
 31
0.0
  0
LINE
  5
5D2
330
1F
100
AcDbEntity
  8
2
  6
CONTINUOUS
370
25
 62
7
100
AcDbLine
 10
38.45962690271822
 20
34.0895288470216
 30
0.0
 11
38.92535424194946
 21
33.62380150779036
 31
0.0
  0
LINE
  5
5D3
330
1F
100
AcDbEntity
  8
2
  6
CONTINUOUS
370
25
 62
7
100
AcDbLine
 10
38.91007150245383
 20
34.06334831599792
 30
0.0
 11
39.23960822314198
 21
33.73381159530977
 31
0.0
  0
LINE
  5
5D4
330
1F
100
AcDbEntity
  8
2
  6
CONTINUOUS
370
25
 62
7
100
AcDbLine
 10
39.36051610218946
 20
34.03716778497424
 30
0.0
 11
39.5538622043345
 21
33.84382168282919
 31
0.0
  0
LINE
  5
5D5
330
1F
100
AcDbEntity
  8
2
  6
CONTINUOUS
370
25
 62
7
100
AcDbLine
 10
39.81096070192508
 20
34.01098725395055
 30
0.0
 11
39.86811618552702
 21
33.9538317703486
 31
0.0
  0
TEXT
  5
5D6
330
1F
100
AcDbEntity
  8
2
  6
CONTINUOUS
370
25
 62
7
100
AcDbText
 10
23.53030455486334
 20
27.1074690211387
 30
0.0
 40
3.499999999999999
  1
90°
 50
45.00000000000002
 72
     1
 11
26.21141776686233
 21
29.78858223313769
 31
0.0
100
AcDbText
  0
LINE
  5
5D7
330
1F
100
AcDbEntity
  8
INFTOTAL
  6
CONTINUOUS
370
18
 62
9
100
AcDbLine
 10
-35.200011
 20
-52.800011
 30
0.0
 11
101.197664799
 21
-52.800011
 31
0.0
  0
LINE
  5
5D8
330
1F
100
AcDbEntity
  8
INFTOTAL
  6
CONTINUOUS
370
18
 62
9
100
AcDbLine
 10
101.197664799
 20
-52.800011
 30
0.0
 11
101.197664799
 21
52.800011
 31
0.0
  0
LINE
  5
5D9
330
1F
100
AcDbEntity
  8
INFTOTAL
  6
CONTINUOUS
370
18
 62
9
100
AcDbLine
 10
101.197664799
 20
52.800011
 30
0.0
 11
-35.200011
 21
52.800011
 31
0.0
  0
LINE
  5
5DA
330
1F
100
AcDbEntity
  8
INFTOTAL
  6
CONTINUOUS
370
18
 62
9
100
AcDbLine
 10
-35.200011
 20
52.800011
 30
0.0
 11
-35.200011
 21
-52.800011
 31
0.0
  0
ARC
  5
5DB
330
1F
100
AcDbEntity
  8
SK6
  6
CONTINUOUS
370
25
 62
5
100
AcDbCircle
 10
63.45903580837651
 20
-42.14524575338785
 30
0.0
 40
2.760489128492204
100
AcDbArc
 50
338.9379403434233
 51
90.44457437511392
  0
LINE
  5
5DC
330
1F
100
AcDbEntity
  8
SK6
  6
CONTINUOUS
370
25
 62
5
100
AcDbLine
 10
63.43761659695983
 20
-39.38483972421281
 30
0.0
 11
63.43761659695983
 21
-40.48789835613464
 31
0.0
  0
ARC
  5
5DD
330
1F
100
AcDbEntity
  8
SK6
  6
CONTINUOUS
370
25
 62
5
100
AcDbCircle
 10
63.44816282936916
 20
-42.1652392456682
 30
0.0
 40
1.677374043771785
100
AcDbArc
 50
243.4214706017864
 51
90.36024081226107
  0
ARC
  5
5DE
330
1F
100
AcDbEntity
  8
SK6
  6
CONTINUOUS
370
25
 62
5
100
AcDbCircle
 10
65.97041369684958
 20
-41.7338319921556
 30
0.0
 40
3.800217030022756
100
AcDbArc
 50
210.548373128854
 51
236.97801693668
  0
LINE
  5
5DF
330
1F
100
AcDbEntity
  8
SK6
  6
CONTINUOUS
370
25
 62
5
100
AcDbLine
 10
63.89944448512486
 20
-44.92016781867535
 30
0.0
 11
68.0413847674267
 21
-44.92016781867535
 31
0.0
  0
ARC
  5
5E0
330
1F
100
AcDbEntity
  8
SK6
  6
CONTINUOUS
370
25
 62
5
100
AcDbCircle
 10
65.97041563877256
 20
-41.73383209373459
 30
0.0
 40
3.800216899582478
100
AcDbArc
 50
303.0219828477958
 51
326.3732153033476
  0
LINE
  5
5E1
330
1F
100
AcDbEntity
  8
SK6
  6
CONTINUOUS
370
25
 62
5
100
AcDbLine
 10
69.13471355135722
 20
-43.8383194907709
 30
0.0
 11
65.77741550575462
 21
-43.8383194907709
 31
0.0
  0
LINE
  5
5E2
330
1F
100
AcDbEntity
  8
SK6
  6
CONTINUOUS
370
25
 62
5
100
AcDbLine
 10
65.77741550575462
 20
-43.8383194907709
 30
0.0
 11
69.69727489771986
 21
-42.47691829641693
 31
0.0
  0
ARC
  5
5E3
330
1F
100
AcDbEntity
  8
SK6
  6
CONTINUOUS
370
25
 62
5
100
AcDbCircle
 10
65.9704163615721
 20
-41.7338326048594
 30
0.0
 40
3.800217216614723
100
AcDbArc
 50
348.7238644184695
 51
53.46910512608847
  0
LINE
  5
5E4
330
1F
100
AcDbEntity
  8
SK6
  6
CONTINUOUS
370
25
 62
5
100
AcDbLine
 10
68.23251904538544
 20
-38.68022124429967
 30
0.0
 11
66.03510427882736
 21
-43.13730973507057
 31
0.0
  0
ENDSEC
  0
SECTION
  2
OBJECTS
  0
DICTIONARY
  5
C
330
0
100
AcDbDictionary
  3
ACAD_GROUP
350
D
  3
ACAD_LAYOUT
350
1A
  3
ACAD_MATERIAL
350
3B
  3
ACAD_MLEADERSTYLE
350
607
  3
ACAD_MLINESTYLE
350
17
  3
ACAD_PLOTSETTINGS
350
19
  3
ACAD_SCALELIST
350
C3
  3
ACAD_VISUALSTYLE
350
2A
  3
ACDBHEADERROUNDTRIPXREC
350
5E5
  3
ACDBVARIABLEDICTIONARY
350
605
  0
DICTIONARY
  5
D
102
{ACAD_REACTORS
330
C
102
}
330
C
100
AcDbDictionary
  0
DICTIONARY
  5
1A
102
{ACAD_REACTORS
330
C
102
}
330
C
100
AcDbDictionary
  0
DICTIONARY
  5
3B
102
{ACAD_REACTORS
330
C
102
}
330
C
100
AcDbDictionary
  3
BYBLOCK
350
3D
  3
BYLAYER
350
3C
  3
GLOBAL
350
3E
  0
DICTIONARY
  5
607
102
{ACAD_REACTORS
330
C
102
}
330
C
100
AcDbDictionary
  0
DICTIONARY
  5
17
102
{ACAD_REACTORS
330
C
102
}
330
C
100
AcDbDictionary
  3
STANDARD
350
18
  0
DICTIONARY
  5
19
102
{ACAD_REACTORS
330
C
102
}
330
C
100
AcDbDictionary
  0
DICTIONARY
  5
C3
102
{ACAD_REACTORS
330
C
102
}
330
C
100
AcDbDictionary
  3
A0
350
C4
  3
A1
350
C5
  3
A2
350
C6
  3
A3
350
C7
  3
A4
350
C8
  3
A5
350
C9
  3
A6
350
CA
  3
A7
350
CB
  3
A8
350
CC
  3
A9
350
CD
  3
B0
350
CE
  3
B1
350
CF
  3
B2
350
D0
  3
B3
350
D1
  3
B4
350
D2
  3
B5
350
D3
  3
B6
350
D4
  3
B7
350
D5
  3
B8
350
D6
  3
B9
350
D7
  3
C0
350
D8
  3
C1
350
D9
  3
C2
350
DA
  3
C3
350
DB
  3
C4
350
DC
  3
C5
350
DD
  3
C6
350
DE
  3
C7
350
DF
  3
C8
350
E0
  3
C9
350
E1
  3
D0
350
E2
  3
D1
350
E3
  3
D2
350
E4
  0
DICTIONARY
  5
2A
102
{ACAD_REACTORS
330
C
102
}
330
C
100
AcDbDictionary
  3
2DWIREFRAME
350
2F
  3
3D_HIDDEN
350
31
  3
3DWIREFRAME
350
30
  3
BASIC
350
32
  3
BRIGHTEN
350
36
  3
COLORCHANGE
350
3A
  3
CONCEPTUAL
350
34
  3
DIM
350
35
  3
FACEPATTERN
350
39
  3
FLAT
350
2B
  3
FLATWITHEDGES
350
2C
  3
GOURAUD
350
2D
  3
GOURAUDWITHEDGES
350
2E
  3
LINEPATTERN
350
38
  3
REALISTIC
350
33
  3
THICKEN
350
37
  0
DICTIONARY
  5
5E5
102
{ACAD_REACTORS
330
C
102
}
330
C
100
AcDbDictionary
  3
CEPSNTYPE
350
5EE
  3
DIMSTYLEDATA
350
604
  3
FINGERPRINTGUID
350
5EF
  3
HYPERLINKBASE
350
5E8
  3
INSUNITS
350
5ED
  3
LAYOUTDICT
350
5EA
  3
LWETCUNION
350
5EC
  3
PLOTSETDICT
350
5EB
  3
PSVPSCALE
350
5F1
  3
PUCSBASE
350
5F4
  3
PUCSORGBACK
350
5FA
  3
PUCSORGBOTTOM
350
5F6
  3
PUCSORGFRONT
350
5F9
  3
PUCSORGLEFT
350
5F7
  3
PUCSORGRIGHT
350
5F8
  3
PUCSORGTOP
350
5F5
  3
PUCSORTHOREF
350
5F2
  3
PUCSORTHOVIEW
350
5F3
  3
STYLESHEET
350
5E9
  3
TSTACKALIGN
350
5E6
  3
TSTACKSIZE
350
5E7
  3
UCSBASE
350
5FD
  3
UCSORGBACK
350
603
  3
UCSORGBOTTOM
350
5FF
  3
UCSORGFRONT
350
602
  3
UCSORGLEFT
350
600
  3
UCSORGRIGHT
350
601
  3
UCSORGTOP
350
5FE
  3
UCSORTHOREF
350
5FB
  3
UCSORTHOVIEW
350
5FC
  3
VERSIONGUID
350
5F0
  0
DICTIONARY
  5
605
102
{ACAD_REACTORS
330
C
102
}
330
C
100
AcDbDictionary
  3
CANNOSCALE
350
60A
  3
DIMASSOC
350
60B
  3
HIDETEXT
350
60C
  3
PSOLHEIGHT
350
609
  3
PSOLWIDTH
350
608
  0
MATERIAL
  5
3D
102
{ACAD_REACTORS
330
3B
102
}
102
{ACAD_XDICTIONARY
360
60F
102
}
330
3B
100
AcDbMaterial
  1
ByBlock
  0
MATERIAL
  5
3C
102
{ACAD_REACTORS
330
3B
102
}
102
{ACAD_XDICTIONARY
360
60D
102
}
330
3B
100
AcDbMaterial
  1
ByLayer
  0
MATERIAL
  5
3E
102
{ACAD_REACTORS
330
3B
102
}
102
{ACAD_XDICTIONARY
360
611
102
}
330
3B
100
AcDbMaterial
  1
Global
  0
MLINESTYLE
  5
18
102
{ACAD_REACTORS
330
17
102
}
330
17
100
AcDbMlineStyle
  2
Standard
 70
     0
  3

 62
   256
 51
90.0
 52
90.0
 71
     2
 49
0.5
 62
   256
  6
BYLAYER
 49
-0.5
 62
   256
  6
BYLAYER
  0
ACAD_PROXY_OBJECT
  5
C4
102
{ACAD_REACTORS
330
C3
102
}
330
C3
100
AcDbProxyObject
 90
      499
 91
      503
 93
       41
310
903313A31580
  0
ACAD_PROXY_OBJECT
  5
C5
102
{ACAD_REACTORS
330
C3
102
}
330
C3
100
AcDbProxyObject
 90
      499
 91
      503
 93
      105
310
903313A324000000000000004000
  0
ACAD_PROXY_OBJECT
  5
C6
102
{ACAD_REACTORS
330
C3
102
}
330
C3
100
AcDbProxyObject
 90
      499
 91
      503
 93
      105
310
903313A344000000000000104000
  0
ACAD_PROXY_OBJECT
  5
C7
102
{ACAD_REACTORS
330
C3
102
}
330
C3
100
AcDbProxyObject
 90
      499
 91
      503
 93
      105
310
903313A354000000000000144000
  0
ACAD_PROXY_OBJECT
  5
C8
102
{ACAD_REACTORS
330
C3
102
}
330
C3
100
AcDbProxyObject
 90
      499
 91
      503
 93
      105
310
903313A384000000000000204000
  0
ACAD_PROXY_OBJECT
  5
C9
102
{ACAD_REACTORS
330
C3
102
}
330
C3
100
AcDbProxyObject
 90
      499
 91
      503
 93
      113
310
904313A31304000000000000244000
  0
ACAD_PROXY_OBJECT
  5
CA
102
{ACAD_REACTORS
330
C3
102
}
330
C3
100
AcDbProxyObject
 90
      499
 91
      503
 93
      113
310
904313A31364000000000000304000
  0
ACAD_PROXY_OBJECT
  5
CB
102
{ACAD_REACTORS
330
C3
102
}
330
C3
100
AcDbProxyObject
 90
      499
 91
      503
 93
      113
310
904313A32304000000000000344000
  0
ACAD_PROXY_OBJECT
  5
CC
102
{ACAD_REACTORS
330
C3
102
}
330
C3
100
AcDbProxyObject
 90
      499
 91
      503
 93
      113
310
904313A333040000000000003E4000
  0
ACAD_PROXY_OBJECT
  5
CD
102
{ACAD_REACTORS
330
C3
102
}
330
C3
100
AcDbProxyObject
 90
      499
 91
      503
 93
      113
310
904313A34304000000000000444000
  0
ACAD_PROXY_OBJECT
  5
CE
102
{ACAD_REACTORS
330
C3
102
}
330
C3
100
AcDbProxyObject
 90
      499
 91
      503
 93
      113
310
904313A35304000000000000494000
  0
ACAD_PROXY_OBJECT
  5
CF
102
{ACAD_REACTORS
330
C3
102
}
330
C3
100
AcDbProxyObject
 90
      499
 91
      503
 93
      121
310
905313A3130304000000000000594000
  0
ACAD_PROXY_OBJECT
  5
D0
102
{ACAD_REACTORS
330
C3
102
}
330
C3
100
AcDbProxyObject
 90
      499
 91
      503
 93
      105
310
903323A310000000000000010100
  0
ACAD_PROXY_OBJECT
  5
D1
102
{ACAD_REACTORS
330
C3
102
}
330
C3
100
AcDbProxyObject
 90
      499
 91
      503
 93
      105
310
903343A310000000000000410100
  0
ACAD_PROXY_OBJECT
  5
D2
102
{ACAD_REACTORS
330
C3
102
}
330
C3
100
AcDbProxyObject
 90
      499
 91
      503
 93
      105
310
903383A310000000000000810100
  0
ACAD_PROXY_OBJECT
  5
D3
102
{ACAD_REACTORS
330
C3
102
}
330
C3
100
AcDbProxyObject
 90
      499
 91
      503
 93
      113
310
90431303A310000000000000910100
  0
ACAD_PROXY_OBJECT
  5
D4
102
{ACAD_REACTORS
330
C3
102
}
330
C3
100
AcDbProxyObject
 90
      499
 91
      503
 93
      121
310
9053130303A310000000000001650100
  0
ACAD_PROXY_OBJECT
  5
D5
102
{ACAD_REACTORS
330
C3
102
}
330
C3
100
AcDbProxyObject
 90
      499
 91
      503
 93
      257
310
90E312F31323822203D2031272D3022000000000000200FC000000000000284000
  0
ACAD_PROXY_OBJECT
  5
D6
102
{ACAD_REACTORS
330
C3
102
}
330
C3
100
AcDbProxyObject
 90
      499
 91
      503
 93
      249
310
90D312F363422203D2031272D3022000000000000240FC000000000000284000
  0
ACAD_PROXY_OBJECT
  5
D7
102
{ACAD_REACTORS
330
C3
102
}
330
C3
100
AcDbProxyObject
 90
      499
 91
      503
 93
      249
310
90D312F333222203D2031272D3022000000000000280FC000000000000284000
  0
ACAD_PROXY_OBJECT
  5
D8
102
{ACAD_REACTORS
330
C3
102
}
330
C3
100
AcDbProxyObject
 90
      499
 91
      503
 93
      249
310
90D312F313622203D2031272D30220000000000002C0FC000000000000284000
  0
ACAD_PROXY_OBJECT
  5
D9
102
{ACAD_REACTORS
330
C3
102
}
330
C3
100
AcDbProxyObject
 90
      499
 91
      503
 93
      249
310
90D332F333222203D2031272D30220000000000002E0FC000000000000284000
  0
ACAD_PROXY_OBJECT
  5
DA
102
{ACAD_REACTORS
330
C3
102
}
330
C3
100
AcDbProxyObject
 90
      499
 91
      503
 93
      241
310
90C312F3822203D2031272D3022000000000000300FC000000000000284000
  0
ACAD_PROXY_OBJECT
  5
DB
102
{ACAD_REACTORS
330
C3
102
}
330
C3
100
AcDbProxyObject
 90
      499
 91
      503
 93
      249
310
90D332F313622203D2031272D3022000000000000320FC000000000000284000
  0
ACAD_PROXY_OBJECT
  5
DC
102
{ACAD_REACTORS
330
C3
102
}
330
C3
100
AcDbProxyObject
 90
      499
 91
      503
 93
      241
310
90C312F3422203D2031272D3022000000000000340FC000000000000284000
  0
ACAD_PROXY_OBJECT
  5
DD
102
{ACAD_REACTORS
330
C3
102
}
330
C3
100
AcDbProxyObject
 90
      499
 91
      503
 93
      241
310
90C332F3822203D2031272D3022000000000000360FC000000000000284000
  0
ACAD_PROXY_OBJECT
  5
DE
102
{ACAD_REACTORS
330
C3
102
}
330
C3
100
AcDbProxyObject
 90
      499
 91
      503
 93
      241
310
90C312F3222203D2031272D3022000000000000380FC000000000000284000
  0
ACAD_PROXY_OBJECT
  5
DF
102
{ACAD_REACTORS
330
C3
102
}
330
C3
100
AcDbProxyObject
 90
      499
 91
      503
 93
      241
310
90C332F3422203D2031272D30220000000000003A0FC000000000000284000
  0
ACAD_PROXY_OBJECT
  5
E0
102
{ACAD_REACTORS
330
C3
102
}
330
C3
100
AcDbProxyObject
 90
      499
 91
      503
 93
      161
310
90A3122203D2031272D30224000000000000284000
  0
ACAD_PROXY_OBJECT
  5
E1
102
{ACAD_REACTORS
330
C3
102
}
330
C3
100
AcDbProxyObject
 90
      499
 91
      503
 93
      257
310
90E312D312F3222203D2031272D30220000000000003E0FC000000000000284000
  0
ACAD_PROXY_OBJECT
  5
E2
102
{ACAD_REACTORS
330
C3
102
}
330
C3
100
AcDbProxyObject
 90
      499
 91
      503
 93
      225
310
90A3322203D2031272D302200000000000002100000000000000284000
  0
ACAD_PROXY_OBJECT
  5
E3
102
{ACAD_REACTORS
330
C3
102
}
330
C3
100
AcDbProxyObject
 90
      499
 91
      503
 93
      225
310
90A3622203D2031272D302200000000000006100000000000000284000
  0
ACAD_PROXY_OBJECT
  5
E4
102
{ACAD_REACTORS
330
C3
102
}
330
C3
100
AcDbProxyObject
 90
      499
 91
      503
 93
      249
310
90D31272D3022203D2031272D30220000000000000A100000000000000284000
  0
ACAD_PROXY_OBJECT
  5
2F
102
{ACAD_REACTORS
330
2A
102
}
330
2A
100
AcDbProxyObject
 90
      499
 91
      501
 93
      436
310
42CC9915DA5C99599C985B595049028333333333333E3BF0000000000000FB0107901411070040501600405405064090741402480A0340
1001
ACAD
1000
AcDbSavedByObjectVersion
1070
     0
  0
ACAD_PROXY_OBJECT
  5
31
102
{ACAD_REACTORS
330
2A
102
}
330
2A
100
AcDbProxyObject
 90
      499
 91
      501
 93
      500
310
424CD108121A5919195B90640502408333333333333E3BF0000000000000FB01079024090700405020000000000001110200405405064090740C02480A0340
1001
ACAD
1000
AcDbSavedByObjectVersion
1070
     0
  0
ACAD_PROXY_OBJECT
  5
30
102
{ACAD_REACTORS
330
2A
102
}
330
2A
100
AcDbProxyObject
 90
      499
 91
      501
 93
      436
310
42CCD915DA5C99599C985B595059028333333333333E3BF0000000000000FB0107901411070040501600405405064090741402480A0340
1001
ACAD
1000
AcDbSavedByObjectVersion
1070
     0
  0
ACAD_PROXY_OBJECT
  5
32
102
{ACAD_REACTORS
330
2A
102
}
330
2A
100
AcDbProxyObject
 90
      499
 91
      501
 93
      388
310
4150985CDA58D07406404333333333333E3BF0000000000000FB0107A41107004050150841D405064090741402480A0350
1001
ACAD
1000
AcDbSavedByObjectVersion
1070
     0
  0
ACAD_PROXY_OBJECT
  5
36
102
{ACAD_REACTORS
330
2A
102
}
330
2A
100
AcDbProxyObject
 90
      499
 91
      501
 93
      428
310
42109C9A59DA1D195B90C409028333333333333E3BF0000000000000FB010790141107004050150841D405064090741402480A029950
1001
ACAD
1000
AcDbSavedByObjectVersion
1070
     0
  0
ACAD_PROXY_OBJECT
  5
3A
102
{ACAD_REACTORS
330
2A
102
}
330
2A
100
AcDbProxyObject
 90
      499
 91
      501
 93
      452
310
42D0DBDB1BDC90DA185B99D95104090240C333333333333E3BF0000000000000FB0108901411070040501508421405064090741402480A0350
1001
ACAD
1000
AcDbSavedByObjectVersion
1070
     0
  0
ACAD_PROXY_OBJECT
  5
34
102
{ACAD_REACTORS
330
2A
102
}
330
2A
100
AcDbProxyObject
 90
      499
 91
      501
 93
      500
310
4290DBDB98D95C1D1D585B10940D028333333333333E3BF0000000000000FB0107902409070040501000000000000111010841D405064090740C02480A0340
1001
ACAD
1000
AcDbSavedByObjectVersion
1070
     0
  0
ACAD_PROXY_OBJECT
  5
35
102
{ACAD_REACTORS
330
2A
102
}
330
2A
100
AcDbProxyObject
 90
      499
 91
      501
 93
      412
310
40D11A5B50B409028333333333333E3BF0000000000000FB010790141107004050150841D405064090741402480A02677FFFFFD0
1001
ACAD
1000
AcDbSavedByObjectVersion
1070
     0
  0
ACAD_PROXY_OBJECT
  5
39
102
{ACAD_REACTORS
330
2A
102
}
330
2A
100
AcDbProxyObject
 90
      499
 91
      501
 93
      444
310
42D19858D95C185D1D195C9B90F409028333333333333E3BF0000000000000FB010790141107004050150841D405064090741402480A0350
1001
ACAD
1000
AcDbSavedByObjectVersion
1070
     0
  0
ACAD_PROXY_OBJECT
  5
2B
102
{ACAD_REACTORS
330
2A
102
}
330
2A
100
AcDbProxyObject
 90
      499
 91
      501
 93
      388
310
41119B185D240901404333333333333E3BF0000000000000F9010740A41107004050150841D405064090741402480A1B50
1001
ACAD
1000
AcDbSavedByObjectVersion
1070
     0
  0
ACAD_PROXY_OBJECT
  5
2C
102
{ACAD_REACTORS
330
2A
102
}
330
2A
100
AcDbProxyObject
 90
      499
 91
      501
 93
      476
310
43519B185D15DA5D1A115919D95CD0140901404333333333333E3BF0000000000000F9010740901411070040501600405405064090741402480A1B50
1001
ACAD
1000
AcDbSavedByObjectVersion
1070
     0
  0
ACAD_PROXY_OBJECT
  5
2D
102
{ACAD_REACTORS
330
2A
102
}
330
2A
100
AcDbProxyObject
 90
      499
 91
      501
 93
      412
310
41D1DBDD5C985D5910240902404333333333333E3BF0000000000000F9010740A411070040501641D405064090741402480A1B50
1001
ACAD
1000
AcDbSavedByObjectVersion
1070
     0
  0
ACAD_PROXY_OBJECT
  5
2E
102
{ACAD_REACTORS
330
2A
102
}
330
2A
100
AcDbProxyObject
 90
      499
 91
      501
 93
      500
310
4411DBDD5C985D5915DA5D1A115919D95CD0340902404333333333333E3BF0000000000000F9010740901411070040501600405405064090741402480A1B50
1001
ACAD
1000
AcDbSavedByObjectVersion
1070
     0
  0
ACAD_PROXY_OBJECT
  5
38
102
{ACAD_REACTORS
330
2A
102
}
330
2A
100
AcDbProxyObject
 90
      499
 91
      501
 93
      444
310
42D31A5B995C185D1D195C9B90E409028333333333333E3BF0000000000000FB010790141107004050750841D405064090741402483A0350
1001
ACAD
1000
AcDbSavedByObjectVersion
1070
     0
  0
ACAD_PROXY_OBJECT
  5
33
102
{ACAD_REACTORS
330
2A
102
}
330
2A
100
AcDbProxyObject
 90
      499
 91
      501
 93
      420
310
425499585B1A5CDD1A58D08409028333333333333E3BF0000000000000FB01079019070040501508421405064090741402480A1B40
1001
ACAD
1000
AcDbSavedByObjectVersion
1070
     0
  0
ACAD_PROXY_OBJECT
  5
37
102
{ACAD_REACTORS
330
2A
102
}
330
2A
100
AcDbProxyObject
 90
      499
 91
      501
 93
      412
310
41D51A1A58DAD95B90D409028333333333333E3BF0000000000000FB010790141107004050150C41D405064090741402480A0350
1001
ACAD
1000
AcDbSavedByObjectVersion
1070
     0
  0
XRECORD
  5
5EE
102
{ACAD_REACTORS
330
5E5
102
}
330
5E5
100
AcDbXrecord
 90
        0
  0
XRECORD
  5
604
102
{ACAD_REACTORS
330
5E5
102
}
330
5E5
100
AcDbXrecord
1000
DSTYLE
1002
{
1070
   340
340
11
1002
}
  0
XRECORD
  5
5EF
102
{ACAD_REACTORS
330
5E5
102
}
330
5E5
100
AcDbXrecord
  1
{14B1D3FF-117B-4F90-B5BB-DCA10521A702}
  0
XRECORD
  5
5E8
102
{ACAD_REACTORS
330
5E5
102
}
330
5E5
100
AcDbXrecord
  1

  0
XRECORD
  5
5ED
102
{ACAD_REACTORS
330
5E5
102
}
330
5E5
100
AcDbXrecord
 90
        4
  0
XRECORD
  5
5EA
102
{ACAD_REACTORS
330
5E5
102
}
330
5E5
100
AcDbXrecord
340
1A
  0
XRECORD
  5
5EC
102
{ACAD_REACTORS
330
5E5
102
}
330
5E5
100
AcDbXrecord
 90
    10781
  0
XRECORD
  5
5EB
102
{ACAD_REACTORS
330
5E5
102
}
330
5E5
100
AcDbXrecord
340
19
  0
XRECORD
  5
5F1
102
{ACAD_REACTORS
330
5E5
102
}
330
5E5
100
AcDbXrecord
 40
0.0
  0
XRECORD
  5
5F4
102
{ACAD_REACTORS
330
5E5
102
}
330
5E5
100
AcDbXrecord
340
0
  0
XRECORD
  5
5FA
102
{ACAD_REACTORS
330
5E5
102
}
330
5E5
100
AcDbXrecord
 10
0.0
 20
0.0
 30
0.0
  0
XRECORD
  5
5F6
102
{ACAD_REACTORS
330
5E5
102
}
330
5E5
100
AcDbXrecord
 10
0.0
 20
0.0
 30
0.0
  0
XRECORD
  5
5F9
102
{ACAD_REACTORS
330
5E5
102
}
330
5E5
100
AcDbXrecord
 10
0.0
 20
0.0
 30
0.0
  0
XRECORD
  5
5F7
102
{ACAD_REACTORS
330
5E5
102
}
330
5E5
100
AcDbXrecord
 10
0.0
 20
0.0
 30
0.0
  0
XRECORD
  5
5F8
102
{ACAD_REACTORS
330
5E5
102
}
330
5E5
100
AcDbXrecord
 10
0.0
 20
0.0
 30
0.0
  0
XRECORD
  5
5F5
102
{ACAD_REACTORS
330
5E5
102
}
330
5E5
100
AcDbXrecord
 10
0.0
 20
0.0
 30
0.0
  0
XRECORD
  5
5F2
102
{ACAD_REACTORS
330
5E5
102
}
330
5E5
100
AcDbXrecord
340
0
  0
XRECORD
  5
5F3
102
{ACAD_REACTORS
330
5E5
102
}
330
5E5
100
AcDbXrecord
 70
     0
  0
XRECORD
  5
5E9
102
{ACAD_REACTORS
330
5E5
102
}
330
5E5
100
AcDbXrecord
  1

  0
XRECORD
  5
5E6
102
{ACAD_REACTORS
330
5E5
102
}
330
5E5
100
AcDbXrecord
 90
        1
  0
XRECORD
  5
5E7
102
{ACAD_REACTORS
330
5E5
102
}
330
5E5
100
AcDbXrecord
 90
       70
  0
XRECORD
  5
5FD
102
{ACAD_REACTORS
330
5E5
102
}
330
5E5
100
AcDbXrecord
340
0
  0
XRECORD
  5
603
102
{ACAD_REACTORS
330
5E5
102
}
330
5E5
100
AcDbXrecord
 10
0.0
 20
0.0
 30
0.0
  0
XRECORD
  5
5FF
102
{ACAD_REACTORS
330
5E5
102
}
330
5E5
100
AcDbXrecord
 10
0.0
 20
0.0
 30
0.0
  0
XRECORD
  5
602
102
{ACAD_REACTORS
330
5E5
102
}
330
5E5
100
AcDbXrecord
 10
0.0
 20
0.0
 30
0.0
  0
XRECORD
  5
600
102
{ACAD_REACTORS
330
5E5
102
}
330
5E5
100
AcDbXrecord
 10
0.0
 20
0.0
 30
0.0
  0
XRECORD
  5
601
102
{ACAD_REACTORS
330
5E5
102
}
330
5E5
100
AcDbXrecord
 10
0.0
 20
0.0
 30
0.0
  0
XRECORD
  5
5FE
102
{ACAD_REACTORS
330
5E5
102
}
330
5E5
100
AcDbXrecord
 10
0.0
 20
0.0
 30
0.0
  0
XRECORD
  5
5FB
102
{ACAD_REACTORS
330
5E5
102
}
330
5E5
100
AcDbXrecord
340
0
  0
XRECORD
  5
5FC
102
{ACAD_REACTORS
330
5E5
102
}
330
5E5
100
AcDbXrecord
 70
     0
  0
XRECORD
  5
5F0
102
{ACAD_REACTORS
330
5E5
102
}
330
5E5
100
AcDbXrecord
  1
{FAEB1C32-E019-11D5-929B-00C0DF256EC4}
  0
DICTIONARYVAR
  5
60A
102
{ACAD_REACTORS
330
605
102
}
330
605
100
DictionaryVariables
280
     0
  1
1:1
  0
DICTIONARYVAR
  5
60B
102
{ACAD_REACTORS
330
605
102
}
330
605
100
DictionaryVariables
280
     0
  1
2
  0
DICTIONARYVAR
  5
60C
102
{ACAD_REACTORS
330
605
102
}
330
605
100
DictionaryVariables
280
     0
  1
1
  0
DICTIONARYVAR
  5
609
102
{ACAD_REACTORS
330
605
102
}
330
605
100
DictionaryVariables
280
     0
  1
80.000000
  0
DICTIONARYVAR
  5
608
102
{ACAD_REACTORS
330
605
102
}
330
605
100
DictionaryVariables
280
     0
  1
5.000000
  0
DICTIONARY
  5
60F
330
3D
100
AcDbDictionary
280
     1
  3
ACAD_XREC_ROUNDTRIP
360
610
  0
DICTIONARY
  5
60D
330
3C
100
AcDbDictionary
280
     1
  3
ACAD_XREC_ROUNDTRIP
360
60E
  0
DICTIONARY
  5
611
330
3E
100
AcDbDictionary
280
     1
  3
ACAD_XREC_ROUNDTRIP
360
612
  0
XRECORD
  5
610
102
{ACAD_REACTORS
330
60F
102
}
330
60F
100
AcDbXrecord
102
MATERIAL
148
0.0
149
0.0
149
0.0
 93
        0
 94
      127
282
     0
 72
     1
 77
     1
171
     1
175
     1
179
     1
273
     0
  0
XRECORD
  5
60E
102
{ACAD_REACTORS
330
60D
102
}
330
60D
100
AcDbXrecord
102
MATERIAL
148
0.0
149
0.0
149
0.0
 93
        0
 94
      127
282
     0
 72
     1
 77
     1
171
     1
175
     1
179
     1
273
     0
  0
XRECORD
  5
612
102
{ACAD_REACTORS
330
611
102
}
330
611
100
AcDbXrecord
102
MATERIAL
148
0.0
149
0.0
149
0.0
 93
        0
 94
      127
282
     0
 72
     1
 77
     1
171
     1
175
     1
179
     1
273
     0
  0
ENDSEC
  0
EOF
