  0
SECTION
  2
HEADER
  9
$ACADVER
  1
AC1014
  9
$ACADMAINTVER
 70
     9
  9
$DWGCODEPAGE
  3
ANSI_1252
  9
$INSBASE
 10
0.0
 20
0.0
 30
0.0
  9
$EXTMIN
 10
0.0
 20
0.0
 30
0.0
  9
$EXTMAX
 10
25.0
 20
35.0
 30
0.0
  9
$LIMMIN
 10
0.0
 20
0.0
  9
$LIMMAX
 10
420.0
 20
297.0
  9
$ORTHOMODE
 70
     0
  9
$REGENMODE
 70
     1
  9
$FILLMODE
 70
     1
  9
$QTEXTMODE
 70
     0
  9
$MIRRTEXT
 70
     1
  9
$DRAGMODE
 70
     2
  9
$LTSCALE
 40
9.55
  9
$OSMODE
 70
    37
  9
$ATTMODE
 70
     1
  9
$TEXTSIZE
 40
2.5
  9
$TRACEWID
 40
1.0
  9
$TEXTSTYLE
  7
STANDARD
  9
$CLAYER
  8
0
  9
$CELTYPE
  6
BYLAYER
  9
$CECOLOR
 62
   256
  9
$CELTSCALE
 40
1.0
  9
$DELOBJ
 70
     1
  9
$DISPSILH
 70
     0
  9
$DIMSCALE
 40
1.0
  9
$DIMASZ
 40
2.5
  9
$DIMEXO
 40
0.625
  9
$DIMDLI
 40
3.75
  9
$DIMRND
 40
0.0
  9
$DIMDLE
 40
0.0
  9
$DIMEXE
 40
1.25
  9
$DIMTP
 40
0.0
  9
$DIMTM
 40
0.0
  9
$DIMTXT
 40
2.5
  9
$DIMCEN
 40
2.5
  9
$DIMTSZ
 40
0.0
  9
$DIMTOL
 70
     0
  9
$DIMLIM
 70
     0
  9
$DIMTIH
 70
     0
  9
$DIMTOH
 70
     0
  9
$DIMSE1
 70
     0
  9
$DIMSE2
 70
     0
  9
$DIMTAD
 70
     1
  9
$DIMZIN
 70
     8
  9
$DIMBLK
  1

  9
$DIMASO
 70
     1
  9
$DIMSHO
 70
     1
  9
$DIMPOST
  1

  9
$DIMAPOST
  1

  9
$DIMALT
 70
     0
  9
$DIMALTD
 70
     3
  9
$DIMALTF
 40
0.03937007874016
  9
$DIMLFAC
 40
1.0
  9
$DIMTOFL
 70
     1
  9
$DIMTVP
 40
0.0
  9
$DIMTIX
 70
     0
  9
$DIMSOXD
 70
     0
  9
$DIMSAH
 70
     0
  9
$DIMBLK1
  1

  9
$DIMBLK2
  1

  9
$DIMSTYLE
  2
ISO-25
  9
$DIMCLRD
 70
     0
  9
$DIMCLRE
 70
     0
  9
$DIMCLRT
 70
     0
  9
$DIMTFAC
 40
1.0
  9
$DIMGAP
 40
0.625
  9
$DIMJUST
 70
     0
  9
$DIMSD1
 70
     0
  9
$DIMSD2
 70
     0
  9
$DIMTOLJ
 70
     0
  9
$DIMTZIN
 70
     8
  9
$DIMALTZ
 70
     0
  9
$DIMALTTZ
 70
     0
  9
$DIMFIT
 70
     3
  9
$DIMUPT
 70
     0
  9
$DIMUNIT
 70
     2
  9
$DIMDEC
 70
     2
  9
$DIMTDEC
 70
     2
  9
$DIMALTU
 70
     2
  9
$DIMALTTD
 70
     3
  9
$DIMTXSTY
  7
STANDARD
  9
$DIMAUNIT
 70
     0
  9
$LUNITS
 70
     2
  9
$LUPREC
 70
     4
  9
$SKETCHINC
 40
1.0
  9
$FILLETRAD
 40
10.0
  9
$AUNITS
 70
     0
  9
$AUPREC
 70
     0
  9
$MENU
  1
.
  9
$ELEVATION
 40
0.0
  9
$PELEVATION
 40
0.0
  9
$THICKNESS
 40
0.0
  9
$LIMCHECK
 70
     0
  9
$CHAMFERA
 40
10.0
  9
$CHAMFERB
 40
10.0
  9
$CHAMFERC
 40
20.0
  9
$CHAMFERD
 40
0.0
  9
$SKPOLY
 70
     0
  9
$TDCREATE
 40
2459072.65625
  9
$TDUPDATE
 40
2459072.659722222
  9
$TDINDWG
 40
0.0000000116
  9
$TDUSRTIMER
 40
0.0000000116
  9
$USRTIMER
 70
     1
  9
$ANGBASE
 50
0.0
  9
$ANGDIR
 70
     0
  9
$PDMODE
 70
     0
  9
$PDSIZE
 40
0.0
  9
$PLINEWID
 40
0.0
  9
$COORDS
 70
     1
  9
$SPLFRAME
 70
     0
  9
$SPLINETYPE
 70
     6
  9
$SPLINESEGS
 70
     8
  9
$ATTDIA
 70
     0
  9
$ATTREQ
 70
     1
  9
$HANDLING
 70
     1
  9
$HANDSEED
  5
663
  9
$SURFTAB1
 70
     6
  9
$SURFTAB2
 70
     6
  9
$SURFTYPE
 70
     6
  9
$SURFU
 70
     6
  9
$SURFV
 70
     6
  9
$UCSNAME
  2

  9
$UCSORG
 10
0.0
 20
0.0
 30
0.0
  9
$UCSXDIR
 10
1.0
 20
0.0
 30
0.0
  9
$UCSYDIR
 10
0.0
 20
1.0
 30
0.0
  9
$PUCSNAME
  2

  9
$PUCSORG
 10
0.0
 20
0.0
 30
0.0
  9
$PUCSXDIR
 10
1.0
 20
0.0
 30
0.0
  9
$PUCSYDIR
 10
0.0
 20
1.0
 30
0.0
  9
$USERI1
 70
     0
  9
$USERI2
 70
     0
  9
$USERI3
 70
     0
  9
$USERI4
 70
     0
  9
$USERI5
 70
     0
  9
$USERR1
 40
0.0
  9
$USERR2
 40
0.0
  9
$USERR3
 40
0.0
  9
$USERR4
 40
0.0
  9
$USERR5
 40
0.0
  9
$WORLDVIEW
 70
     1
  9
$SHADEDGE
 70
     3
  9
$SHADEDIF
 70
    70
  9
$TILEMODE
 70
     1
  9
$MAXACTVP
 70
    64
  9
$PINSBASE
 10
0.0
 20
0.0
 30
0.0
  9
$PLIMCHECK
 70
     0
  9
$PEXTMIN
 10
1.000000000000000E+20
 20
1.000000000000000E+20
 30
1.000000000000000E+20
  9
$PEXTMAX
 10
-1.000000000000000E+20
 20
-1.000000000000000E+20
 30
-1.000000000000000E+20
  9
$PLIMMIN
 10
0.0
 20
0.0
  9
$PLIMMAX
 10
420.0
 20
297.0
  9
$UNITMODE
 70
     0
  9
$VISRETAIN
 70
     1
  9
$PLINEGEN
 70
     0
  9
$PSLTSCALE
 70
     1
  9
$TREEDEPTH
 70
  3020
  9
$PICKSTYLE
 70
     1
  9
$CMLSTYLE
  2
STANDARD
  9
$CMLJUST
 70
     0
  9
$CMLSCALE
 40
20.0
  9
$PROXYGRAPHICS
 70
     1
  9
$MEASUREMENT
 70
     1
  0
ENDSEC
  0
SECTION
  2
CLASSES
  0
CLASS
  1
ACDBDICTIONARYWDFLT
  2
AcDbDictionaryWithDefault
  3
ObjectDBX Classes
 90
        0
280
     0
281
     0
  0
CLASS
  1
VISUALSTYLE
  2
AcDbVisualStyle
  3
ObjectDBX Classes
 90
     4095
280
     0
281
     0
  0
CLASS
  1
MATERIAL
  2
AcDbMaterial
  3
ObjectDBX Classes
 90
     1153
280
     0
281
     0
  0
CLASS
  1
SCALE
  2
AcDbScale
  3
ObjectDBX Classes
 90
     1153
280
     0
281
     0
  0
CLASS
  1
DICTIONARYVAR
  2
AcDbDictionaryVar
  3
ObjectDBX Classes
 90
        0
280
     0
281
     0
  0
CLASS
  1
XRECORD
  2
AcDbXrecord
  3
AutoCAD 2000
 90
        0
280
     0
281
     0
  0
CLASS
  1
LWPOLYLINE
  2
AcDbPolyline
  3
AutoCAD 2000
 90
        0
280
     0
281
     1
  0
CLASS
  1
HATCH
  2
AcDbHatch
  3
AutoCAD 2000
 90
        0
280
     0
281
     1
  0
CLASS
  1
ACDBPLACEHOLDER
  2
AcDbPlaceHolder
  3
ObjectDBX Classes
 90
        0
280
     0
281
     0
  0
CLASS
  1
LAYOUT
  2
AcDbLayout
  3
ObjectDBX Classes
 90
        0
280
     0
281
     0
  0
ENDSEC
  0
SECTION
  2
TABLES
  0
TABLE
  2
VPORT
  5
8
330
0
100
AcDbSymbolTable
 70
     1
  0
VPORT
  5
29
330
8
100
AcDbSymbolTableRecord
100
AcDbViewportTableRecord
  2
*ACTIVE
 70
     0
 10
0.0
 20
0.0
 11
1.0
 21
1.0
 12
11.26
 22
4.5
 13
0.0
 23
0.0
 14
10.0
 24
10.0
 15
10.0
 25
10.0
 16
0.0
 26
0.0
 36
1.0
 17
0.0
 27
0.0
 37
0.0
 40
9.0
 41
2.503333333333333
 42
50.0
 43
0.0
 44
0.0
 50
0.0
 51
0.0
 71
     0
 72
   100
 73
     1
 74
     3
 75
     0
 76
     0
 77
     0
 78
     0
  0
ENDTAB
  0
TABLE
  2
LTYPE
  5
5
330
0
100
AcDbSymbolTable
 70
    11
  0
LTYPE
  5
14
330
5
100
AcDbSymbolTableRecord
100
AcDbLinetypeTableRecord
  2
BYBLOCK
 70
     0
  3

 72
    65
 73
     0
 40
0.0
  0
LTYPE
  5
15
330
5
100
AcDbSymbolTableRecord
100
AcDbLinetypeTableRecord
  2
BYLAYER
 70
     0
  3

 72
    65
 73
     0
 40
0.0
  0
LTYPE
  5
16
330
5
100
AcDbSymbolTableRecord
100
AcDbLinetypeTableRecord
  2
CONTINUOUS
 70
     0
  3
Solid line
 72
    65
 73
     0
 40
0.0
  0
LTYPE
  5
45
330
5
100
AcDbSymbolTableRecord
100
AcDbLinetypeTableRecord
  2
PHL_THICK
 70
     0
  3
THICK
 72
    65
 73
     0
 40
0.0
  0
LTYPE
  5
5C
330
5
100
AcDbSymbolTableRecord
100
AcDbLinetypeTableRecord
  2
DASH
 70
     0
  3
THIN_DASHED
 72
    65
 73
     2
 40
0.75
 49
0.4
 74
     0
 49
-0.35
 74
     0
  0
LTYPE
  5
6D
330
5
100
AcDbSymbolTableRecord
100
AcDbLinetypeTableRecord
  2
CUT
 70
     0
  3
THICK
 72
    65
 73
     0
 40
0.0
  0
LTYPE
  5
77
330
5
100
AcDbSymbolTableRecord
100
AcDbLinetypeTableRecord
  2
NOCUT
 70
     0
  3
THICK
 72
    65
 73
     0
 40
0.0
  0
LTYPE
  5
8A
330
5
100
AcDbSymbolTableRecord
100
AcDbLinetypeTableRecord
  2
LS_2
 70
     0
  3
THIN
 72
    65
 73
     0
 40
0.0
  0
LTYPE
  5
203
330
5
100
AcDbSymbolTableRecord
100
AcDbLinetypeTableRecord
  2
LS_SK2
 70
     0
  3
THIN
 72
    65
 73
     0
 40
0.0
  0
LTYPE
  5
2CD
330
5
100
AcDbSymbolTableRecord
100
AcDbLinetypeTableRecord
  2
LONGDASH_DASH
 70
     0
  3
THIN_DASHDOT
 72
    65
 73
     4
 40
0.85
 49
0.4
 74
     0
 49
-0.2
 74
     0
 49
0.05
 74
     0
 49
-0.2
 74
     0
  0
LTYPE
  5
2D0
330
5
100
AcDbSymbolTableRecord
100
AcDbLinetypeTableRecord
  2
LS_SK1
 70
     0
  3
THICK
 72
    65
 73
     0
 40
0.0
  0
LTYPE
  5
347
330
5
100
AcDbSymbolTableRecord
100
AcDbLinetypeTableRecord
  2
INFTOTAL
 70
     0
  3
THIN
 72
    65
 73
     0
 40
0.0
  0
LTYPE
  5
34D
330
5
100
AcDbSymbolTableRecord
100
AcDbLinetypeTableRecord
  2
LS1
 70
     0
  3
THICK
 72
    65
 73
     0
 40
0.0
  0
ENDTAB
  0
TABLE
  2
LAYER
  5
2
330
0
100
AcDbSymbolTable
 70
    11
  0
LAYER
  5
10
330
2
100
AcDbSymbolTableRecord
100
AcDbLayerTableRecord
  2
0
 70
     0
 62
     7
  6
CONTINUOUS
  0
LAYER
  5
44
330
2
100
AcDbSymbolTableRecord
100
AcDbLayerTableRecord
  2
1
 70
     0
 62
4
  6
CONTINUOUS
370
50
  0
LAYER
  5
5B
330
2
100
AcDbSymbolTableRecord
100
AcDbLayerTableRecord
  2
SK3
 70
     0
 62
1
  6
DASH
370
35
  0
LAYER
  5
6C
330
2
100
AcDbSymbolTableRecord
100
AcDbLayerTableRecord
  2
CUT
 70
     0
 62
1
  6
CONTINUOUS
370
25
  0
LAYER
  5
76
330
2
100
AcDbSymbolTableRecord
100
AcDbLayerTableRecord
  2
NOCUT
 70
     0
 62
7
  6
CONTINUOUS
370
25
  0
LAYER
  5
89
330
2
100
AcDbSymbolTableRecord
100
AcDbLayerTableRecord
  2
2
 70
     0
 62
7
  6
CONTINUOUS
370
25
  0
LAYER
  5
202
330
2
100
AcDbSymbolTableRecord
100
AcDbLayerTableRecord
  2
SK2
 70
     0
 62
7
  6
CONTINUOUS
370
25
  0
LAYER
  5
2CC
330
2
100
AcDbSymbolTableRecord
100
AcDbLayerTableRecord
  2
4
 70
     0
 62
2
  6
LONGDASH_DASH
370
25
  0
LAYER
  5
2CF
330
2
100
AcDbSymbolTableRecord
100
AcDbLayerTableRecord
  2
SK1
 70
     0
 62
4
  6
CONTINUOUS
370
50
  0
LAYER
  5
346
330
2
100
AcDbSymbolTableRecord
100
AcDbLayerTableRecord
  2
INFTOTAL
 70
     0
 62
9
  6
CONTINUOUS
370
18
  0
LAYER
  5
34C
330
2
100
AcDbSymbolTableRecord
100
AcDbLayerTableRecord
  2
SK6
 70
     0
 62
5
  6
CONTINUOUS
370
25
  0
ENDTAB
  0
TABLE
  2
STYLE
  5
3
330
0
100
AcDbSymbolTable
 70
     1
  0
STYLE
  5
11
330
3
100
AcDbSymbolTableRecord
100
AcDbTextStyleTableRecord
  2
STANDARD
 70
     0
 40
0.0
 41
1.0
 50
0.0
 71
     0
 42
2.5
  3
Monospac821 BT
  4

  0
ENDTAB
  0
TABLE
  2
VIEW
  5
6
330
0
100
AcDbSymbolTable
 70
     0
  0
ENDTAB
  0
TABLE
  2
UCS
  5
7
330
0
100
AcDbSymbolTable
 70
     0
  0
ENDTAB
  0
TABLE
  2
APPID
  5
9
330
0
100
AcDbSymbolTable
 70
     2
  0
APPID
  5
12
330
9
100
AcDbSymbolTableRecord
100
AcDbRegAppTableRecord
  2
ACAD
 70
     0
  0
APPID
  5
3F
330
9
100
AcDbSymbolTableRecord
100
AcDbRegAppTableRecord
  2
CCLAB
 70
     0
  0
ENDTAB
  0
TABLE
  2
DIMSTYLE
  5
A
330
0
100
AcDbSymbolTable
 70
     1
  0
DIMSTYLE
105
27
330
A
100
AcDbSymbolTableRecord
100
AcDbDimStyleTableRecord
  2
ISO-25
 70
     0
  3

  4

  5

  6

  7

 40
1.0
 41
2.5
 42
0.625
 43
3.75
 44
1.25
 45
0.0
 46
0.0
 47
0.0
 48
0.0
140
2.5
141
2.5
142
0.0
143
0.03937007874016
144
1.0
145
0.0
146
1.0
147
0.625
 71
     0
 72
     0
 73
     0
 74
     0
 75
     0
 76
     0
 77
     1
 78
     8
170
     0
171
     3
172
     1
173
     0
174
     0
175
     0
176
     0
177
     0
178
     0
270
     2
271
     2
272
     2
273
     2
274
     3
340
11
275
     0
280
     0
281
     0
282
     0
283
     0
284
     8
285
     0
286
     0
287
     3
288
     0
  0
ENDTAB
  0
TABLE
  2
BLOCK_RECORD
  5
1
330
0
100
AcDbSymbolTable
 70
     2
  0
BLOCK_RECORD
  5
1F
330
1
100
AcDbSymbolTableRecord
100
AcDbBlockTableRecord
  2
*MODEL_SPACE
  0
BLOCK_RECORD
  5
1B
330
1
100
AcDbSymbolTableRecord
100
AcDbBlockTableRecord
  2
*PAPER_SPACE
  0
ENDTAB
  0
ENDSEC
  0
SECTION
  2
BLOCKS
  0
BLOCK
  5
20
330
1F
100
AcDbEntity
  8
0
100
AcDbBlockBegin
  2
*MODEL_SPACE
 70
     0
 10
0.0
 20
0.0
 30
0.0
  3
*MODEL_SPACE
  1

  0
ENDBLK
  5
21
330
1F
100
AcDbEntity
  8
0
100
AcDbBlockEnd
  0
BLOCK
  5
1C
330
1B
100
AcDbEntity
 67
     1
  8
0
100
AcDbBlockBegin
  2
*PAPER_SPACE
 70
     0
 10
0.0
 20
0.0
 30
0.0
  3
*PAPER_SPACE
  1

  0
ENDBLK
  5
1D
330
1B
100
AcDbEntity
 67
     1
  8
0
100
AcDbBlockEnd
  0
ENDSEC
  0
SECTION
  2
ENTITIES
  0
LINE
  5
357
330
1F
100
AcDbEntity
  8
1
  6
CONTINUOUS
370
50
 62
4
100
AcDbLine
 10
56.63603999999999
 20
-67.563965
 30
0.0
 11
54.947079
 21
-65.875
 31
0.0
  0
LINE
  5
358
330
1F
100
AcDbEntity
  8
1
  6
CONTINUOUS
370
50
 62
4
100
AcDbLine
 10
63.0
 20
62.5
 30
0.0
 11
57.93603899999999
 21
67.563965
 31
0.0
  0
LINE
  5
359
330
1F
100
AcDbEntity
  8
1
  6
CONTINUOUS
370
50
 62
4
100
AcDbLine
 10
52.763641
 20
-65.875
 30
0.0
 11
46.399677
 21
-59.51103999999999
 31
0.0
  0
LINE
  5
35A
330
1F
100
AcDbEntity
  8
1
  6
CONTINUOUS
370
50
 62
4
100
AcDbLine
 10
46.399677
 20
-59.51103999999999
 30
0.0
 11
24.0
 21
-45.0
 31
0.0
  0
LINE
  5
35B
330
1F
100
AcDbEntity
  8
1
  6
CONTINUOUS
370
50
 62
4
100
AcDbLine
 10
56.63603999999999
 20
-67.563965
 30
0.0
 11
57.93603899999999
 21
-67.563965
 31
0.0
  0
LINE
  5
35C
330
1F
100
AcDbEntity
  8
1
  6
CONTINUOUS
370
50
 62
4
100
AcDbLine
 10
52.763641
 20
-65.875
 30
0.0
 11
54.947079
 21
-65.875
 31
0.0
  0
LINE
  5
35D
330
1F
100
AcDbEntity
  8
1
  6
CONTINUOUS
370
50
 62
4
100
AcDbLine
 10
0.0
 20
-45.0
 30
0.0
 11
24.0
 21
-45.0
 31
0.0
  0
LINE
  5
35E
330
1F
100
AcDbEntity
  8
1
  6
CONTINUOUS
370
50
 62
4
100
AcDbLine
 10
0.0
 20
45.0
 30
0.0
 11
24.0
 21
45.0
 31
0.0
  0
LINE
  5
35F
330
1F
100
AcDbEntity
  8
1
  6
CONTINUOUS
370
50
 62
4
100
AcDbLine
 10
52.763641
 20
65.875
 30
0.0
 11
54.947079
 21
65.875
 31
0.0
  0
LINE
  5
360
330
1F
100
AcDbEntity
  8
1
  6
CONTINUOUS
370
50
 62
4
100
AcDbLine
 10
56.63603999999999
 20
67.563965
 30
0.0
 11
57.93603899999999
 21
67.563965
 31
0.0
  0
LINE
  5
361
330
1F
100
AcDbEntity
  8
1
  6
CONTINUOUS
370
50
 62
4
100
AcDbLine
 10
24.0
 20
45.0
 30
0.0
 11
46.399677
 21
59.51103999999999
 31
0.0
  0
LINE
  5
362
330
1F
100
AcDbEntity
  8
1
  6
CONTINUOUS
370
50
 62
4
100
AcDbLine
 10
46.399677
 20
59.51103999999999
 30
0.0
 11
52.763641
 21
65.875
 31
0.0
  0
LINE
  5
363
330
1F
100
AcDbEntity
  8
1
  6
CONTINUOUS
370
50
 62
4
100
AcDbLine
 10
57.93603899999999
 20
-67.563965
 30
0.0
 11
63.0
 21
-62.5
 31
0.0
  0
LINE
  5
364
330
1F
100
AcDbEntity
  8
1
  6
CONTINUOUS
370
50
 62
4
100
AcDbLine
 10
54.947079
 20
65.875
 30
0.0
 11
56.63603999999999
 21
67.563965
 31
0.0
  0
LINE
  5
365
330
1F
100
AcDbEntity
  8
1
  6
CONTINUOUS
370
50
 62
4
100
AcDbLine
 10
0.0
 20
-45.0
 30
0.0
 11
0.0
 21
45.0
 31
0.0
  0
LINE
  5
366
330
1F
100
AcDbEntity
  8
1
  6
CONTINUOUS
370
50
 62
4
100
AcDbLine
 10
24.0
 20
-45.0
 30
0.0
 11
24.0
 21
45.0
 31
0.0
  0
LINE
  5
367
330
1F
100
AcDbEntity
  8
1
  6
CONTINUOUS
370
50
 62
4
100
AcDbLine
 10
46.399677
 20
-59.51103999999999
 30
0.0
 11
46.399677
 21
59.51103999999999
 31
0.0
  0
LINE
  5
368
330
1F
100
AcDbEntity
  8
1
  6
CONTINUOUS
370
50
 62
4
100
AcDbLine
 10
52.763641
 20
-65.875
 30
0.0
 11
52.763641
 21
65.875
 31
0.0
  0
LINE
  5
369
330
1F
100
AcDbEntity
  8
1
  6
CONTINUOUS
370
50
 62
4
100
AcDbLine
 10
56.63603999999999
 20
-67.563965
 30
0.0
 11
56.63603999999999
 21
67.563965
 31
0.0
  0
LINE
  5
36A
330
1F
100
AcDbEntity
  8
1
  6
CONTINUOUS
370
50
 62
4
100
AcDbLine
 10
57.93603899999999
 20
-67.563965
 30
0.0
 11
57.93603899999999
 21
67.563965
 31
0.0
  0
LINE
  5
36B
330
1F
100
AcDbEntity
  8
1
  6
CONTINUOUS
370
50
 62
4
100
AcDbLine
 10
63.0
 20
-62.5
 30
0.0
 11
63.0
 21
62.5
 31
0.0
  0
LINE
  5
36C
330
1F
100
AcDbEntity
  8
SK3
  6
DASH
370
35
 62
1
100
AcDbLine
 10
1.0
 20
45.0
 30
0.0
 11
1.0
 21
-45.0
 31
0.0
  0
LINE
  5
36D
330
1F
100
AcDbEntity
  8
SK3
  6
DASH
370
35
 62
1
100
AcDbLine
 10
0.0
 20
18.24171044611771
 30
0.0
 11
7.241710446117711
 21
18.24171044611771
 31
0.0
  0
LINE
  5
36E
330
1F
100
AcDbEntity
  8
SK3
  6
DASH
370
35
 62
1
100
AcDbLine
 10
0.0
 20
-18.24171044611771
 30
0.0
 11
7.241710446117711
 21
-18.24171044611771
 31
0.0
  0
ARC
  5
36F
330
1F
100
AcDbEntity
  8
SK3
  6
DASH
370
35
 62
1
100
AcDbCircle
 10
7.241710446117711
 20
19.99999999999999
 30
0.0
 40
1.758289553882282
100
AcDbArc
 50
270.0
 51
0.0
  0
ARC
  5
370
330
1F
100
AcDbEntity
  8
SK3
  6
DASH
370
35
 62
1
100
AcDbCircle
 10
7.241710446117711
 20
-19.99999999999999
 30
0.0
 40
1.758289553882282
100
AcDbArc
 50
0.0
 51
90.0
  0
LINE
  5
371
330
1F
100
AcDbEntity
  8
SK3
  6
DASH
370
35
 62
1
100
AcDbLine
 10
9.0
 20
45.0
 30
0.0
 11
9.0
 21
20.0
 31
0.0
  0
LINE
  5
372
330
1F
100
AcDbEntity
  8
SK3
  6
DASH
370
35
 62
1
100
AcDbLine
 10
9.0
 20
-45.0
 30
0.0
 11
9.0
 21
-20.0
 31
0.0
  0
LINE
  5
373
330
1F
100
AcDbEntity
  8
SK3
  6
DASH
370
35
 62
1
100
AcDbLine
 10
9.0
 20
20.0
 30
0.0
 11
18.916
 21
20.0
 31
0.0
  0
LINE
  5
374
330
1F
100
AcDbEntity
  8
SK3
  6
DASH
370
35
 62
1
100
AcDbLine
 10
9.0
 20
-20.0
 30
0.0
 11
18.916
 21
-20.0
 31
0.0
  0
LINE
  5
375
330
1F
100
AcDbEntity
  8
SK3
  6
DASH
370
35
 62
1
100
AcDbLine
 10
18.916
 20
20.0
 30
0.0
 11
18.916
 21
-20.0
 31
0.0
  0
LINE
  5
376
330
1F
100
AcDbEntity
  8
SK3
  6
DASH
370
35
 62
1
100
AcDbLine
 10
18.916
 20
11.0
 30
0.0
 11
26.916
 21
11.0
 31
0.0
  0
LINE
  5
377
330
1F
100
AcDbEntity
  8
SK3
  6
DASH
370
35
 62
1
100
AcDbLine
 10
18.916
 20
-11.0
 30
0.0
 11
26.916
 21
-11.0
 31
0.0
  0
LINE
  5
378
330
1F
100
AcDbEntity
  8
SK3
  6
DASH
370
35
 62
1
100
AcDbLine
 10
26.916
 20
16.5
 30
0.0
 11
26.916
 21
-16.5
 31
0.0
  0
LINE
  5
379
330
1F
100
AcDbEntity
  8
SK3
  6
DASH
370
35
 62
1
100
AcDbLine
 10
26.916
 20
16.5
 30
0.0
 11
40.61066667
 21
16.5
 31
0.0
  0
LINE
  5
37A
330
1F
100
AcDbEntity
  8
SK3
  6
DASH
370
35
 62
1
100
AcDbLine
 10
26.916
 20
-16.5
 30
0.0
 11
40.61066667
 21
-16.5
 31
0.0
  0
LINE
  5
37B
330
1F
100
AcDbEntity
  8
CUT
  6
CONTINUOUS
370
25
 62
1
100
AcDbLine
 10
62.99999934999935
 20
62.50000065000065
 30
0.0
 11
57.93603831932042
 21
67.56396168067958
 31
0.0
  0
LINE
  5
37C
330
1F
100
AcDbEntity
  8
CUT
  6
CONTINUOUS
370
25
 62
1
100
AcDbLine
 10
57.93603831932042
 20
67.56396168067958
 30
0.0
 11
56.63603831932042
 21
67.56396168067957
 31
0.0
  0
LINE
  5
37D
330
1F
100
AcDbEntity
  8
CUT
  6
CONTINUOUS
370
25
 62
1
100
AcDbLine
 10
56.63603831932042
 20
67.56396168067957
 30
0.0
 11
51.57207858864279
 21
62.49999934999934
 31
0.0
  0
LINE
  5
37E
330
1F
100
AcDbEntity
  8
CUT
  6
CONTINUOUS
370
25
 62
1
100
AcDbLine
 10
51.57207858864279
 20
62.49999934999934
 30
0.0
 11
51.57207858864279
 21
61.19999934999935
 31
0.0
  0
LINE
  5
37F
330
1F
100
AcDbEntity
  8
CUT
  6
CONTINUOUS
370
25
 62
1
100
AcDbLine
 10
51.57207858864279
 20
61.19999934999935
 30
0.0
 11
56.63603961932172
 21
56.13603831932042
 31
0.0
  0
LINE
  5
380
330
1F
100
AcDbEntity
  8
CUT
  6
CONTINUOUS
370
25
 62
1
100
AcDbLine
 10
56.63603961932172
 20
56.13603831932042
 30
0.0
 11
57.93603961932172
 21
56.13603831932042
 31
0.0
  0
LINE
  5
381
330
1F
100
AcDbEntity
  8
CUT
  6
CONTINUOUS
370
25
 62
1
100
AcDbLine
 10
57.93603961932172
 20
56.13603831932042
 30
0.0
 11
62.99999934999935
 21
61.20000065000065
 31
0.0
  0
LINE
  5
382
330
1F
100
AcDbEntity
  8
CUT
  6
CONTINUOUS
370
25
 62
1
100
AcDbLine
 10
62.99999934999935
 20
61.20000065000065
 30
0.0
 11
62.99999934999935
 21
62.50000065000065
 31
0.0
  0
LINE
  5
383
330
1F
100
AcDbEntity
  8
NOCUT
  6
CONTINUOUS
370
25
 62
7
100
AcDbLine
 10
0.0
 20
0.0
 30
0.0
 11
40.61066666666666
 21
0.0
 31
0.0
  0
LINE
  5
384
330
1F
100
AcDbEntity
  8
NOCUT
  6
CONTINUOUS
370
25
 62
7
100
AcDbLine
 10
40.61066666666666
 20
0.0
 30
0.0
 11
40.61066666666666
 21
25.0
 31
0.0
  0
LINE
  5
385
330
1F
100
AcDbEntity
  8
NOCUT
  6
CONTINUOUS
370
25
 62
7
100
AcDbLine
 10
40.61066666666666
 20
25.0
 30
0.0
 11
54.55203896932107
 21
55.35867882932107
 31
0.0
  0
LINE
  5
386
330
1F
100
AcDbEntity
  8
NOCUT
  6
CONTINUOUS
370
25
 62
7
100
AcDbLine
 10
54.55203896932107
 20
55.35867882932107
 30
0.0
 11
60.916
 21
61.72263986
 31
0.0
  0
LINE
  5
387
330
1F
100
AcDbEntity
  8
NOCUT
  6
CONTINUOUS
370
25
 62
7
100
AcDbLine
 10
60.916
 20
61.72263986
 30
0.0
 11
60.916
 21
62.22263986
 31
0.0
  0
LINE
  5
388
330
1F
100
AcDbEntity
  8
NOCUT
  6
CONTINUOUS
370
25
 62
7
100
AcDbLine
 10
60.916
 20
62.22263986
 30
0.0
 11
57.26363986
 21
65.875
 31
0.0
  0
LINE
  5
389
330
1F
100
AcDbEntity
  8
NOCUT
  6
CONTINUOUS
370
25
 62
7
100
AcDbLine
 10
57.26363986
 20
65.875
 30
0.0
 11
52.76363986
 21
65.875
 31
0.0
  0
LINE
  5
38A
330
1F
100
AcDbEntity
  8
NOCUT
  6
CONTINUOUS
370
25
 62
7
100
AcDbLine
 10
52.76363986
 20
65.875
 30
0.0
 11
46.39967882932107
 21
59.51103896932107
 31
0.0
  0
LINE
  5
38B
330
1F
100
AcDbEntity
  8
NOCUT
  6
CONTINUOUS
370
25
 62
7
100
AcDbLine
 10
46.39967882932107
 20
59.51103896932107
 30
0.0
 11
24.0
 21
45.0
 31
0.0
  0
LINE
  5
38C
330
1F
100
AcDbEntity
  8
NOCUT
  6
CONTINUOUS
370
25
 62
7
100
AcDbLine
 10
24.0
 20
45.0
 30
0.0
 11
0.0
 21
45.0
 31
0.0
  0
LINE
  5
38D
330
1F
100
AcDbEntity
  8
NOCUT
  6
CONTINUOUS
370
25
 62
7
100
AcDbLine
 10
0.0
 20
45.0
 30
0.0
 11
0.0
 21
0.0
 31
0.0
  0
LINE
  5
38E
330
1F
100
AcDbEntity
  8
SK3
  6
DASH
370
35
 62
1
100
AcDbLine
 10
40.61066666666666
 20
25.0
 30
0.0
 11
40.61066666666666
 21
-25.0
 31
0.0
  0
LINE
  5
38F
330
1F
100
AcDbEntity
  8
SK3
  6
DASH
370
35
 62
1
100
AcDbLine
 10
40.61066666666666
 20
25.0
 30
0.0
 11
54.55203896932107
 21
55.35867882932107
 31
0.0
  0
LINE
  5
390
330
1F
100
AcDbEntity
  8
SK3
  6
DASH
370
35
 62
1
100
AcDbLine
 10
40.61066666666666
 20
-25.0
 30
0.0
 11
54.55203896932107
 21
-55.35867882932107
 31
0.0
  0
LINE
  5
391
330
1F
100
AcDbEntity
  8
SK3
  6
DASH
370
35
 62
1
100
AcDbLine
 10
54.55203896932107
 20
55.35867882932107
 30
0.0
 11
54.55203896932107
 21
-55.35867882932107
 31
0.0
  0
LINE
  5
392
330
1F
100
AcDbEntity
  8
SK3
  6
DASH
370
35
 62
1
100
AcDbLine
 10
54.55203896932107
 20
55.35867882932107
 30
0.0
 11
60.916
 21
61.72263986
 31
0.0
  0
LINE
  5
393
330
1F
100
AcDbEntity
  8
SK3
  6
DASH
370
35
 62
1
100
AcDbLine
 10
54.55203896932107
 20
-55.35867882932107
 30
0.0
 11
60.916
 21
-61.72263986
 31
0.0
  0
LINE
  5
394
330
1F
100
AcDbEntity
  8
2
  6
CONTINUOUS
370
25
 62
7
100
AcDbLine
 10
63.0
 20
-62.5
 30
0.0
 11
86.0
 21
-62.5
 31
0.0
  0
LINE
  5
395
330
1F
100
AcDbEntity
  8
2
  6
CONTINUOUS
370
25
 62
7
100
AcDbLine
 10
86.00000000000001
 20
62.5
 30
0.0
 11
63.00000000000001
 21
62.5
 31
0.0
  0
LINE
  5
396
330
1F
100
AcDbEntity
  8
2
  6
CONTINUOUS
370
25
 62
7
100
AcDbLine
 10
85.0
 20
-62.5
 30
0.0
 11
85.0
 21
62.5
 31
0.0
  0
LINE
  5
397
330
1F
100
AcDbEntity
  8
2
  6
CONTINUOUS
370
25
 62
7
100
AcDbLine
 10
85.0
 20
-62.5
 30
0.0
 11
84.0
 21
-57.5
 31
0.0
  0
LINE
  5
398
330
1F
100
AcDbEntity
  8
2
  6
CONTINUOUS
370
25
 62
7
100
AcDbLine
 10
84.0
 20
-57.5
 30
0.0
 11
86.0
 21
-57.5
 31
0.0
  0
LINE
  5
399
330
1F
100
AcDbEntity
  8
2
  6
CONTINUOUS
370
25
 62
7
100
AcDbLine
 10
86.0
 20
-57.5
 30
0.0
 11
85.0
 21
-62.5
 31
0.0
  0
LINE
  5
39A
330
1F
100
AcDbEntity
  8
2
  6
CONTINUOUS
370
25
 62
7
100
AcDbLine
 10
84.973224333207
 20
-62.36612166603494
 30
0.0
 11
85.04016350018951
 21
-62.29918249905243
 31
0.0
  0
LINE
  5
39B
330
1F
100
AcDbEntity
  8
2
  6
CONTINUOUS
370
25
 62
7
100
AcDbLine
 10
84.90251365508834
 20
-62.01256827544168
 30
0.0
 11
85.14622951736749
 21
-61.76885241316253
 31
0.0
  0
LINE
  5
39C
330
1F
100
AcDbEntity
  8
2
  6
CONTINUOUS
370
25
 62
7
100
AcDbLine
 10
84.83180297696968
 20
-61.6590148848484
 30
0.0
 11
85.25229553454547
 21
-61.23852232727262
 31
0.0
  0
LINE
  5
39D
330
1F
100
AcDbEntity
  8
2
  6
CONTINUOUS
370
25
 62
7
100
AcDbLine
 10
84.76109229885103
 20
-61.30546149425514
 30
0.0
 11
85.35836155172346
 21
-60.7081922413827
 31
0.0
  0
LINE
  5
39E
330
1F
100
AcDbEntity
  8
2
  6
CONTINUOUS
370
25
 62
7
100
AcDbLine
 10
84.69038162073237
 20
-60.95190810366189
 30
0.0
 11
85.46442756890144
 21
-60.1778621554928
 31
0.0
  0
LINE
  5
39F
330
1F
100
AcDbEntity
  8
2
  6
CONTINUOUS
370
25
 62
7
100
AcDbLine
 10
84.61967094261372
 20
-60.59835471306862
 30
0.0
 11
85.57049358607942
 21
-59.6475320696029
 31
0.0
  0
LINE
  5
3A0
330
1F
100
AcDbEntity
  8
2
  6
CONTINUOUS
370
25
 62
7
100
AcDbLine
 10
84.54896026449508
 20
-60.24480132247533
 30
0.0
 11
85.6765596032574
 21
-59.11720198371299
 31
0.0
  0
LINE
  5
3A1
330
1F
100
AcDbEntity
  8
2
  6
CONTINUOUS
370
25
 62
7
100
AcDbLine
 10
84.47824958637642
 20
-59.89124793188206
 30
0.0
 11
85.78262562043538
 21
-58.58687189782309
 31
0.0
  0
LINE
  5
3A2
330
1F
100
AcDbEntity
  8
2
  6
CONTINUOUS
370
25
 62
7
100
AcDbLine
 10
84.40753890825776
 20
-59.53769454128877
 30
0.0
 11
85.88869163761336
 21
-58.05654181193316
 31
0.0
  0
LINE
  5
3A3
330
1F
100
AcDbEntity
  8
2
  6
CONTINUOUS
370
25
 62
7
100
AcDbLine
 10
84.3368282301391
 20
-59.18414115069551
 30
0.0
 11
85.99475765479134
 21
-57.52621172604326
 31
0.0
  0
LINE
  5
3A4
330
1F
100
AcDbEntity
  8
2
  6
CONTINUOUS
370
25
 62
7
100
AcDbLine
 10
84.26611755202045
 20
-58.83058776010225
 30
0.0
 11
85.59670531212268
 21
-57.5
 31
0.0
  0
LINE
  5
3A5
330
1F
100
AcDbEntity
  8
2
  6
CONTINUOUS
370
25
 62
7
100
AcDbLine
 10
84.19540687390179
 20
-58.47703436950897
 30
0.0
 11
85.17244124341074
 21
-57.5
 31
0.0
  0
LINE
  5
3A6
330
1F
100
AcDbEntity
  8
2
  6
CONTINUOUS
370
25
 62
7
100
AcDbLine
 10
84.12469619578313
 20
-58.12348097891568
 30
0.0
 11
84.7481771746988
 21
-57.5
 31
0.0
  0
LINE
  5
3A7
330
1F
100
AcDbEntity
  8
2
  6
CONTINUOUS
370
25
 62
7
100
AcDbLine
 10
84.05398551766449
 20
-57.7699275883224
 30
0.0
 11
84.32391310598688
 21
-57.5
 31
0.0
  0
LINE
  5
3A8
330
1F
100
AcDbEntity
  8
2
  6
CONTINUOUS
370
25
 62
7
100
AcDbLine
 10
84.89743507238877
 20
-61.98717536194393
 30
0.0
 11
85.06837661840748
 21
-62.15811690796264
 31
0.0
  0
LINE
  5
3A9
330
1F
100
AcDbEntity
  8
2
  6
CONTINUOUS
370
25
 62
7
100
AcDbLine
 10
84.79136905521081
 20
-61.45684527605404
 30
0.0
 11
85.13908729652613
 21
-61.80456351736936
 31
0.0
  0
LINE
  5
3AA
330
1F
100
AcDbEntity
  8
2
  6
CONTINUOUS
370
25
 62
7
100
AcDbLine
 10
84.68530303803283
 20
-60.92651519016413
 30
0.0
 11
85.20979797464479
 21
-61.45101012677609
 31
0.0
  0
LINE
  5
3AB
330
1F
100
AcDbEntity
  8
2
  6
CONTINUOUS
370
25
 62
7
100
AcDbLine
 10
84.57923702085485
 20
-60.39618510427422
 30
0.0
 11
85.28050865276343
 21
-61.09745673618281
 31
0.0
  0
LINE
  5
3AC
330
1F
100
AcDbEntity
  8
2
  6
CONTINUOUS
370
25
 62
7
100
AcDbLine
 10
84.47317100367687
 20
-59.86585501838432
 30
0.0
 11
85.35121933088209
 21
-60.74390334558954
 31
0.0
  0
LINE
  5
3AD
330
1F
100
AcDbEntity
  8
2
  6
CONTINUOUS
370
25
 62
7
100
AcDbLine
 10
84.36710498649889
 20
-59.33552493249441
 30
0.0
 11
85.42193000900075
 21
-60.39034995499628
 31
0.0
  0
LINE
  5
3AE
330
1F
100
AcDbEntity
  8
2
  6
CONTINUOUS
370
25
 62
7
100
AcDbLine
 10
84.26103896932091
 20
-58.8051948466045
 30
0.0
 11
85.4926406871194
 21
-60.03679656440301
 31
0.0
  0
LINE
  5
3AF
330
1F
100
AcDbEntity
  8
2
  6
CONTINUOUS
370
25
 62
7
100
AcDbLine
 10
84.15497295214291
 20
-58.27486476071458
 30
0.0
 11
85.56335136523806
 21
-59.68324317380974
 31
0.0
  0
LINE
  5
3B0
330
1F
100
AcDbEntity
  8
2
  6
CONTINUOUS
370
25
 62
7
100
AcDbLine
 10
84.04890693496493
 20
-57.74453467482467
 30
0.0
 11
85.6340620433567
 21
-59.32968978321646
 31
0.0
  0
LINE
  5
3B1
330
1F
100
AcDbEntity
  8
2
  6
CONTINUOUS
370
25
 62
7
100
AcDbLine
 10
84.22863632885219
 20
-57.5
 30
0.0
 11
85.70477272147536
 21
-58.97613639262319
 31
0.0
  0
LINE
  5
3B2
330
1F
100
AcDbEntity
  8
2
  6
CONTINUOUS
370
25
 62
7
100
AcDbLine
 10
84.65290039756411
 20
-57.50000000000001
 30
0.0
 11
85.77548339959401
 21
-58.62258300202991
 31
0.0
  0
LINE
  5
3B3
330
1F
100
AcDbEntity
  8
2
  6
CONTINUOUS
370
25
 62
7
100
AcDbLine
 10
85.07716446627605
 20
-57.5
 30
0.0
 11
85.84619407771268
 21
-58.26902961143664
 31
0.0
  0
LINE
  5
3B4
330
1F
100
AcDbEntity
  8
2
  6
CONTINUOUS
370
25
 62
7
100
AcDbLine
 10
85.50142853498798
 20
-57.50000000000001
 30
0.0
 11
85.91690475583134
 21
-57.91547622084337
 31
0.0
  0
LINE
  5
3B5
330
1F
100
AcDbEntity
  8
2
  6
CONTINUOUS
370
25
 62
7
100
AcDbLine
 10
85.9256926036999
 20
-57.5
 30
0.0
 11
85.98761543394998
 21
-57.56192283025008
 31
0.0
  0
LINE
  5
3B6
330
1F
100
AcDbEntity
  8
2
  6
CONTINUOUS
370
25
 62
7
100
AcDbLine
 10
85.00000000000001
 20
62.5
 30
0.0
 11
86.00000000000001
 21
57.5
 31
0.0
  0
LINE
  5
3B7
330
1F
100
AcDbEntity
  8
2
  6
CONTINUOUS
370
25
 62
7
100
AcDbLine
 10
86.00000000000001
 20
57.5
 30
0.0
 11
84.00000000000001
 21
57.5
 31
0.0
  0
LINE
  5
3B8
330
1F
100
AcDbEntity
  8
2
  6
CONTINUOUS
370
25
 62
7
100
AcDbLine
 10
84.00000000000001
 20
57.5
 30
0.0
 11
85.00000000000001
 21
62.5
 31
0.0
  0
LINE
  5
3B9
330
1F
100
AcDbEntity
  8
2
  6
CONTINUOUS
370
25
 62
7
100
AcDbLine
 10
85.75460558214097
 20
57.5
 30
0.0
 11
85.95910093035684
 21
57.70449534821587
 31
0.0
  0
LINE
  5
3BA
330
1F
100
AcDbEntity
  8
2
  6
CONTINUOUS
370
25
 62
7
100
AcDbLine
 10
85.33034151342903
 20
57.49999999999999
 30
0.0
 11
85.88839025223818
 21
58.05804873880914
 31
0.0
  0
LINE
  5
3BB
330
1F
100
AcDbEntity
  8
2
  6
CONTINUOUS
370
25
 62
7
100
AcDbLine
 10
84.90607744471711
 20
57.5
 30
0.0
 11
85.81767957411954
 21
58.41160212940243
 31
0.0
  0
LINE
  5
3BC
330
1F
100
AcDbEntity
  8
2
  6
CONTINUOUS
370
25
 62
7
100
AcDbLine
 10
84.48181337600519
 20
57.50000000000001
 30
0.0
 11
85.74696889600087
 21
58.76515551999568
 31
0.0
  0
LINE
  5
3BD
330
1F
100
AcDbEntity
  8
2
  6
CONTINUOUS
370
25
 62
7
100
AcDbLine
 10
84.05754930729326
 20
57.5
 30
0.0
 11
85.67625821788222
 21
59.11870891058896
 31
0.0
  0
LINE
  5
3BE
330
1F
100
AcDbEntity
  8
2
  6
CONTINUOUS
370
25
 62
7
100
AcDbLine
 10
84.09167869035468
 20
57.95839345177334
 30
0.0
 11
85.60554753976358
 21
59.47226230118223
 31
0.0
  0
LINE
  5
3BF
330
1F
100
AcDbEntity
  8
2
  6
CONTINUOUS
370
25
 62
7
100
AcDbLine
 10
84.19774470753265
 20
58.48872353766325
 30
0.0
 11
85.5348368616449
 21
59.8258156917755
 31
0.0
  0
LINE
  5
3C0
330
1F
100
AcDbEntity
  8
2
  6
CONTINUOUS
370
25
 62
7
100
AcDbLine
 10
84.30381072471063
 20
59.01905362355314
 30
0.0
 11
85.46412618352626
 21
60.17936908236877
 31
0.0
  0
LINE
  5
3C1
330
1F
100
AcDbEntity
  8
2
  6
CONTINUOUS
370
25
 62
7
100
AcDbLine
 10
84.40987674188862
 20
59.54938370944308
 30
0.0
 11
85.3934155054076
 21
60.53292247296204
 31
0.0
  0
LINE
  5
3C2
330
1F
100
AcDbEntity
  8
2
  6
CONTINUOUS
370
25
 62
7
100
AcDbLine
 10
84.51594275906662
 20
60.07971379533299
 30
0.0
 11
85.32270482728894
 21
60.88647586355531
 31
0.0
  0
LINE
  5
3C3
330
1F
100
AcDbEntity
  8
2
  6
CONTINUOUS
370
25
 62
7
100
AcDbLine
 10
84.62200877624458
 20
60.61004388122286
 30
0.0
 11
85.25199414917029
 21
61.24002925414857
 31
0.0
  0
LINE
  5
3C4
330
1F
100
AcDbEntity
  8
2
  6
CONTINUOUS
370
25
 62
7
100
AcDbLine
 10
84.72807479342256
 20
61.14037396711279
 30
0.0
 11
85.18128347105164
 21
61.59358264474185
 31
0.0
  0
LINE
  5
3C5
330
1F
100
AcDbEntity
  8
2
  6
CONTINUOUS
370
25
 62
7
100
AcDbLine
 10
84.83414081060054
 20
61.67070405300268
 30
0.0
 11
85.110572792933
 21
61.94713603533512
 31
0.0
  0
LINE
  5
3C6
330
1F
100
AcDbEntity
  8
2
  6
CONTINUOUS
370
25
 62
7
100
AcDbLine
 10
84.94020682777851
 20
62.20103413889256
 30
0.0
 11
85.03986211481434
 21
62.30068942592839
 31
0.0
  0
LINE
  5
3C7
330
1F
100
AcDbEntity
  8
2
  6
CONTINUOUS
370
25
 62
7
100
AcDbLine
 10
84.03403315829738
 20
57.67016579148684
 30
0.0
 11
84.20419894978421
 21
57.5
 31
0.0
  0
LINE
  5
3C8
330
1F
100
AcDbEntity
  8
2
  6
CONTINUOUS
370
25
 62
7
100
AcDbLine
 10
84.10474383641603
 20
58.02371918208013
 30
0.0
 11
84.62846301849616
 21
57.5
 31
0.0
  0
LINE
  5
3C9
330
1F
100
AcDbEntity
  8
2
  6
CONTINUOUS
370
25
 62
7
100
AcDbLine
 10
84.17545451453469
 20
58.37727257267339
 30
0.0
 11
85.05272708720808
 21
57.5
 31
0.0
  0
LINE
  5
3CA
330
1F
100
AcDbEntity
  8
2
  6
CONTINUOUS
370
25
 62
7
100
AcDbLine
 10
84.24616519265334
 20
58.73082596326667
 30
0.0
 11
85.47699115592
 21
57.5
 31
0.0
  0
LINE
  5
3CB
330
1F
100
AcDbEntity
  8
2
  6
CONTINUOUS
370
25
 62
7
100
AcDbLine
 10
84.31687587077201
 20
59.08437935385994
 30
0.0
 11
85.90125522463195
 21
57.5
 31
0.0
  0
LINE
  5
3CC
330
1F
100
AcDbEntity
  8
2
  6
CONTINUOUS
370
25
 62
7
100
AcDbLine
 10
84.38758654889067
 20
59.43793274445322
 30
0.0
 11
85.91862017666404
 21
57.90689911667985
 31
0.0
  0
LINE
  5
3CD
330
1F
100
AcDbEntity
  8
2
  6
CONTINUOUS
370
25
 62
7
100
AcDbLine
 10
84.45829722700933
 20
59.79148613504645
 30
0.0
 11
85.81255415948606
 21
58.43722920256974
 31
0.0
  0
LINE
  5
3CE
330
1F
100
AcDbEntity
  8
2
  6
CONTINUOUS
370
25
 62
7
100
AcDbLine
 10
84.52900790512797
 20
60.14503952563975
 30
0.0
 11
85.70648814230809
 21
58.96755928845963
 31
0.0
  0
LINE
  5
3CF
330
1F
100
AcDbEntity
  8
2
  6
CONTINUOUS
370
25
 62
7
100
AcDbLine
 10
84.59971858324661
 20
60.49859291623304
 30
0.0
 11
85.6004221251301
 21
59.49788937434955
 31
0.0
  0
LINE
  5
3D0
330
1F
100
AcDbEntity
  8
2
  6
CONTINUOUS
370
25
 62
7
100
AcDbLine
 10
84.67042926136527
 20
60.85214630682627
 30
0.0
 11
85.49435610795213
 21
60.02821946023943
 31
0.0
  0
LINE
  5
3D1
330
1F
100
AcDbEntity
  8
2
  6
CONTINUOUS
370
25
 62
7
100
AcDbLine
 10
84.74113993948393
 20
61.20569969741953
 30
0.0
 11
85.38829009077415
 21
60.55854954612933
 31
0.0
  0
LINE
  5
3D2
330
1F
100
AcDbEntity
  8
2
  6
CONTINUOUS
370
25
 62
7
100
AcDbLine
 10
84.81185061760257
 20
61.55925308801282
 30
0.0
 11
85.28222407359615
 21
61.08887963201924
 31
0.0
  0
LINE
  5
3D3
330
1F
100
AcDbEntity
  8
2
  6
CONTINUOUS
370
25
 62
7
100
AcDbLine
 10
84.88256129572123
 20
61.9128064786061
 30
0.0
 11
85.17615805641817
 21
61.61920971790916
 31
0.0
  0
LINE
  5
3D4
330
1F
100
AcDbEntity
  8
2
  6
CONTINUOUS
370
25
 62
7
100
AcDbLine
 10
84.95327197383989
 20
62.26635986919936
 30
0.0
 11
85.0700920392402
 21
62.14953980379907
 31
0.0
  0
TEXT
  5
3D5
330
1F
100
AcDbEntity
  8
2
  6
CONTINUOUS
370
25
 62
7
100
AcDbText
 10
83.5
 20
-1.808333333333334
 30
0.0
 40
3.5
  1
125
 50
90.0
 72
     1
 11
83.5
 21
2.275
 31
0.0
100
AcDbText
  0
CIRCLE
  5
3D6
330
1F
100
AcDbEntity
  8
2
  6
CONTINUOUS
370
25
 62
7
100
AcDbCircle
 10
81.75
 20
-4.200000000000001
 30
0.0
 40
1.4
  0
LINE
  5
3D7
330
1F
100
AcDbEntity
  8
2
  6
CONTINUOUS
370
25
 62
7
100
AcDbLine
 10
83.15
 20
-5.600000000000001
 30
0.0
 11
80.35
 21
-2.8
 31
0.0
  0
LINE
  5
3D8
330
1F
100
AcDbEntity
  8
2
  6
CONTINUOUS
370
25
 62
7
100
AcDbLine
 10
57.93603897
 20
-67.56396103
 30
0.0
 11
96.0
 21
-67.56396103
 31
0.0
  0
LINE
  5
3D9
330
1F
100
AcDbEntity
  8
2
  6
CONTINUOUS
370
25
 62
7
100
AcDbLine
 10
96.00000000000001
 20
67.56603897
 30
0.0
 11
57.93603897000001
 21
67.56603897
 31
0.0
  0
LINE
  5
3DA
330
1F
100
AcDbEntity
  8
2
  6
CONTINUOUS
370
25
 62
7
100
AcDbLine
 10
95.0
 20
-67.56396103
 30
0.0
 11
95.0
 21
67.56603897
 31
0.0
  0
LINE
  5
3DB
330
1F
100
AcDbEntity
  8
2
  6
CONTINUOUS
370
25
 62
7
100
AcDbLine
 10
95.0
 20
-67.56396103
 30
0.0
 11
94.0
 21
-62.56396103
 31
0.0
  0
LINE
  5
3DC
330
1F
100
AcDbEntity
  8
2
  6
CONTINUOUS
370
25
 62
7
100
AcDbLine
 10
94.0
 20
-62.56396103
 30
0.0
 11
96.0
 21
-62.56396103
 31
0.0
  0
LINE
  5
3DD
330
1F
100
AcDbEntity
  8
2
  6
CONTINUOUS
370
25
 62
7
100
AcDbLine
 10
96.0
 20
-62.56396103
 30
0.0
 11
95.0
 21
-67.56396103
 31
0.0
  0
LINE
  5
3DE
330
1F
100
AcDbEntity
  8
2
  6
CONTINUOUS
370
25
 62
7
100
AcDbLine
 10
94.9383000926021
 20
-67.25546149301054
 30
0.0
 11
95.09254986109683
 21
-67.10121172451582
 31
0.0
  0
LINE
  5
3DF
330
1F
100
AcDbEntity
  8
2
  6
CONTINUOUS
370
25
 62
7
100
AcDbLine
 10
94.86758941448345
 20
-66.90190810241727
 30
0.0
 11
95.19861587827482
 21
-66.57088163862589
 31
0.0
  0
LINE
  5
3E0
330
1F
100
AcDbEntity
  8
2
  6
CONTINUOUS
370
25
 62
7
100
AcDbLine
 10
94.79687873636482
 20
-66.54835471182399
 30
0.0
 11
95.30468189545279
 21
-66.040551552736
 31
0.0
  0
LINE
  5
3E1
330
1F
100
AcDbEntity
  8
2
  6
CONTINUOUS
370
25
 62
7
100
AcDbLine
 10
94.72616805824616
 20
-66.19480132123071
 30
0.0
 11
95.41074791263078
 21
-65.51022146684609
 31
0.0
  0
LINE
  5
3E2
330
1F
100
AcDbEntity
  8
2
  6
CONTINUOUS
370
25
 62
7
100
AcDbLine
 10
94.6554573801275
 20
-65.84124793063745
 30
0.0
 11
95.51681392980875
 21
-64.9798913809562
 31
0.0
  0
LINE
  5
3E3
330
1F
100
AcDbEntity
  8
2
  6
CONTINUOUS
370
25
 62
7
100
AcDbLine
 10
94.58474670200884
 20
-65.48769454004419
 30
0.0
 11
95.62287994698673
 21
-64.44956129506629
 31
0.0
  0
LINE
  5
3E4
330
1F
100
AcDbEntity
  8
2
  6
CONTINUOUS
370
25
 62
7
100
AcDbLine
 10
94.5140360238902
 20
-65.13414114945091
 30
0.0
 11
95.72894596416472
 21
-63.91923120917637
 31
0.0
  0
LINE
  5
3E5
330
1F
100
AcDbEntity
  8
2
  6
CONTINUOUS
370
25
 62
7
100
AcDbLine
 10
94.44332534577154
 20
-64.78058775885765
 30
0.0
 11
95.83501198134269
 21
-63.38890112328649
 31
0.0
  0
LINE
  5
3E6
330
1F
100
AcDbEntity
  8
2
  6
CONTINUOUS
370
25
 62
7
100
AcDbLine
 10
94.37261466765288
 20
-64.42703436826436
 30
0.0
 11
95.94107799852068
 21
-62.85857103739654
 31
0.0
  0
LINE
  5
3E7
330
1F
100
AcDbEntity
  8
2
  6
CONTINUOUS
370
25
 62
7
100
AcDbLine
 10
94.30190398953422
 20
-64.07348097767108
 30
0.0
 11
95.81142393720529
 21
-62.56396103
 31
0.0
  0
LINE
  5
3E8
330
1F
100
AcDbEntity
  8
2
  6
CONTINUOUS
370
25
 62
7
100
AcDbLine
 10
94.23119331141557
 20
-63.71992758707782
 30
0.0
 11
95.38715986849337
 21
-62.56396103
 31
0.0
  0
LINE
  5
3E9
330
1F
100
AcDbEntity
  8
2
  6
CONTINUOUS
370
25
 62
7
100
AcDbLine
 10
94.16048263329691
 20
-63.36637419648456
 30
0.0
 11
94.96289579978145
 21
-62.56396103
 31
0.0
  0
LINE
  5
3EA
330
1F
100
AcDbEntity
  8
2
  6
CONTINUOUS
370
25
 62
7
100
AcDbLine
 10
94.08977195517825
 20
-63.01282080589129
 30
0.0
 11
94.53863173106953
 21
-62.56396103
 31
0.0
  0
LINE
  5
3EB
330
1F
100
AcDbEntity
  8
2
  6
CONTINUOUS
370
25
 62
7
100
AcDbLine
 10
94.0190612770596
 20
-62.65926741529802
 30
0.0
 11
94.11436766235762
 21
-62.56396103
 31
0.0
  0
LINE
  5
3EC
330
1F
100
AcDbEntity
  8
2
  6
CONTINUOUS
370
25
 62
7
100
AcDbLine
 10
94.96471862593117
 20
-67.38755415965585
 30
0.0
 11
95.02352091604588
 21
-67.44635644977058
 31
0.0
  0
LINE
  5
3ED
330
1F
100
AcDbEntity
  8
2
  6
CONTINUOUS
370
25
 62
7
100
AcDbLine
 10
94.85865260875319
 20
-66.85722407376596
 30
0.0
 11
95.09423159416454
 21
-67.09280305917731
 31
0.0
  0
LINE
  5
3EE
330
1F
100
AcDbEntity
  8
2
  6
CONTINUOUS
370
25
 62
7
100
AcDbLine
 10
94.75258659157522
 20
-66.32689398787608
 30
0.0
 11
95.16494227228318
 21
-66.73924966858402
 31
0.0
  0
LINE
  5
3EF
330
1F
100
AcDbEntity
  8
2
  6
CONTINUOUS
370
25
 62
7
100
AcDbLine
 10
94.64652057439723
 20
-65.79656390198615
 30
0.0
 11
95.23565295040183
 21
-66.38569627799076
 31
0.0
  0
LINE
  5
3F0
330
1F
100
AcDbEntity
  8
2
  6
CONTINUOUS
370
25
 62
7
100
AcDbLine
 10
94.54045455721926
 20
-65.26623381609625
 30
0.0
 11
95.3063636285205
 21
-66.0321428873975
 31
0.0
  0
LINE
  5
3F1
330
1F
100
AcDbEntity
  8
2
  6
CONTINUOUS
370
25
 62
7
100
AcDbLine
 10
94.43438854004127
 20
-64.73590373020635
 30
0.0
 11
95.37707430663914
 21
-65.67858949680422
 31
0.0
  0
LINE
  5
3F2
330
1F
100
AcDbEntity
  8
2
  6
CONTINUOUS
370
25
 62
7
100
AcDbLine
 10
94.32832252286329
 20
-64.20557364431642
 30
0.0
 11
95.4477849847578
 21
-65.32503610621094
 31
0.0
  0
LINE
  5
3F3
330
1F
100
AcDbEntity
  8
2
  6
CONTINUOUS
370
25
 62
7
100
AcDbLine
 10
94.22225650568531
 20
-63.67524355842652
 30
0.0
 11
95.51849566287646
 21
-64.97148271561768
 31
0.0
  0
LINE
  5
3F4
330
1F
100
AcDbEntity
  8
2
  6
CONTINUOUS
370
25
 62
7
100
AcDbLine
 10
94.11619048850731
 20
-63.14491347253659
 30
0.0
 11
95.5892063409951
 21
-64.61792932502439
 31
0.0
  0
LINE
  5
3F5
330
1F
100
AcDbEntity
  8
2
  6
CONTINUOUS
370
25
 62
7
100
AcDbLine
 10
94.01012447132935
 20
-62.6145833866467
 30
0.0
 11
95.65991701911378
 21
-64.26437593443114
 31
0.0
  0
LINE
  5
3F6
330
1F
100
AcDbEntity
  8
2
  6
CONTINUOUS
370
25
 62
7
100
AcDbLine
 10
94.38376618339457
 20
-62.56396103000001
 30
0.0
 11
95.73062769723242
 21
-63.91082254383787
 31
0.0
  0
LINE
  5
3F7
330
1F
100
AcDbEntity
  8
2
  6
CONTINUOUS
370
25
 62
7
100
AcDbLine
 10
94.8080302521065
 20
-62.56396103
 30
0.0
 11
95.80133837535108
 21
-63.55726915324459
 31
0.0
  0
LINE
  5
3F8
330
1F
100
AcDbEntity
  8
2
  6
CONTINUOUS
370
25
 62
7
100
AcDbLine
 10
95.23229432081843
 20
-62.56396103000001
 30
0.0
 11
95.87204905346972
 21
-63.20371576265131
 31
0.0
  0
LINE
  5
3F9
330
1F
100
AcDbEntity
  8
2
  6
CONTINUOUS
370
25
 62
7
100
AcDbLine
 10
95.65655838953033
 20
-62.56396103
 30
0.0
 11
95.94275973158837
 21
-62.85016237205804
 31
0.0
  0
LINE
  5
3FA
330
1F
100
AcDbEntity
  8
2
  6
CONTINUOUS
370
25
 62
7
100
AcDbLine
 10
95.00000000000001
 20
67.56603897
 30
0.0
 11
96.00000000000001
 21
62.56603896999999
 31
0.0
  0
LINE
  5
3FB
330
1F
100
AcDbEntity
  8
2
  6
CONTINUOUS
370
25
 62
7
100
AcDbLine
 10
96.00000000000001
 20
62.56603896999999
 30
0.0
 11
94.00000000000001
 21
62.56603896999999
 31
0.0
  0
LINE
  5
3FC
330
1F
100
AcDbEntity
  8
2
  6
CONTINUOUS
370
25
 62
7
100
AcDbLine
 10
94.00000000000001
 20
62.56603896999999
 30
0.0
 11
95.00000000000001
 21
67.56603897
 31
0.0
  0
LINE
  5
3FD
330
1F
100
AcDbEntity
  8
2
  6
CONTINUOUS
370
25
 62
7
100
AcDbLine
 10
95.59739778759777
 20
62.56603896999999
 30
0.0
 11
95.93289963126631
 21
62.90154081366853
 31
0.0
  0
LINE
  5
3FE
330
1F
100
AcDbEntity
  8
2
  6
CONTINUOUS
370
25
 62
7
100
AcDbLine
 10
95.17313371888585
 20
62.56603897
 30
0.0
 11
95.86218895314765
 21
63.2550942042618
 31
0.0
  0
LINE
  5
3FF
330
1F
100
AcDbEntity
  8
2
  6
CONTINUOUS
370
25
 62
7
100
AcDbLine
 10
94.74886965017392
 20
62.56603896999999
 30
0.0
 11
95.79147827502898
 21
63.60864759485506
 31
0.0
  0
LINE
  5
400
330
1F
100
AcDbEntity
  8
2
  6
CONTINUOUS
370
25
 62
7
100
AcDbLine
 10
94.32460558146198
 20
62.56603896999999
 30
0.0
 11
95.72076759691033
 21
63.96220098544833
 31
0.0
  0
LINE
  5
401
330
1F
100
AcDbEntity
  8
2
  6
CONTINUOUS
370
25
 62
7
100
AcDbLine
 10
94.02491462181251
 20
62.69061207906245
 30
0.0
 11
95.65005691879168
 21
64.3157543760416
 31
0.0
  0
LINE
  5
402
330
1F
100
AcDbEntity
  8
2
  6
CONTINUOUS
370
25
 62
7
100
AcDbLine
 10
94.13098063899048
 20
63.22094216495233
 30
0.0
 11
95.57934624067303
 21
64.66930776663489
 31
0.0
  0
LINE
  5
403
330
1F
100
AcDbEntity
  8
2
  6
CONTINUOUS
370
25
 62
7
100
AcDbLine
 10
94.23704665616846
 20
63.75127225084223
 30
0.0
 11
95.50863556255439
 21
65.02286115722816
 31
0.0
  0
LINE
  5
404
330
1F
100
AcDbEntity
  8
2
  6
CONTINUOUS
370
25
 62
7
100
AcDbLine
 10
94.34311267334644
 20
64.28160233673213
 30
0.0
 11
95.43792488443573
 21
65.37641454782141
 31
0.0
  0
LINE
  5
405
330
1F
100
AcDbEntity
  8
2
  6
CONTINUOUS
370
25
 62
7
100
AcDbLine
 10
94.44917869052443
 20
64.81193242262206
 30
0.0
 11
95.36721420631707
 21
65.72996793841469
 31
0.0
  0
LINE
  5
406
330
1F
100
AcDbEntity
  8
2
  6
CONTINUOUS
370
25
 62
7
100
AcDbLine
 10
94.55524470770241
 20
65.34226250851196
 30
0.0
 11
95.2965035281984
 21
66.08352132900794
 31
0.0
  0
LINE
  5
407
330
1F
100
AcDbEntity
  8
2
  6
CONTINUOUS
370
25
 62
7
100
AcDbLine
 10
94.6613107248804
 20
65.87259259440185
 30
0.0
 11
95.22579285007976
 21
66.43707471960121
 31
0.0
  0
LINE
  5
408
330
1F
100
AcDbEntity
  8
2
  6
CONTINUOUS
370
25
 62
7
100
AcDbLine
 10
94.76737674205837
 20
66.40292268029177
 30
0.0
 11
95.15508217196111
 21
66.79062811019449
 31
0.0
  0
LINE
  5
409
330
1F
100
AcDbEntity
  8
2
  6
CONTINUOUS
370
25
 62
7
100
AcDbLine
 10
94.87344275923634
 20
66.93325276618165
 30
0.0
 11
95.08437149384245
 21
67.14418150078777
 31
0.0
  0
LINE
  5
40A
330
1F
100
AcDbEntity
  8
2
  6
CONTINUOUS
370
25
 62
7
100
AcDbLine
 10
94.97950877641432
 20
67.46358285207154
 30
0.0
 11
95.01366081572381
 21
67.49773489138101
 31
0.0
  0
LINE
  5
40B
330
1F
100
AcDbEntity
  8
2
  6
CONTINUOUS
370
25
 62
7
100
AcDbLine
 10
94.06861107556895
 20
62.90909434784477
 30
0.0
 11
94.41166645341373
 21
62.56603896999999
 31
0.0
  0
LINE
  5
40C
330
1F
100
AcDbEntity
  8
2
  6
CONTINUOUS
370
25
 62
7
100
AcDbLine
 10
94.13932175368761
 20
63.26264773843802
 30
0.0
 11
94.83593052212564
 21
62.56603896999999
 31
0.0
  0
LINE
  5
40D
330
1F
100
AcDbEntity
  8
2
  6
CONTINUOUS
370
25
 62
7
100
AcDbLine
 10
94.21003243180627
 20
63.61620112903128
 30
0.0
 11
95.26019459083757
 21
62.56603896999999
 31
0.0
  0
LINE
  5
40E
330
1F
100
AcDbEntity
  8
2
  6
CONTINUOUS
370
25
 62
7
100
AcDbLine
 10
94.28074310992493
 20
63.96975451962454
 30
0.0
 11
95.68445865954948
 21
62.56603896999999
 31
0.0
  0
LINE
  5
40F
330
1F
100
AcDbEntity
  8
2
  6
CONTINUOUS
370
25
 62
7
100
AcDbLine
 10
94.35145378804359
 20
64.32330791021782
 30
0.0
 11
95.97281931793465
 21
62.70194238032677
 31
0.0
  0
LINE
  5
410
330
1F
100
AcDbEntity
  8
2
  6
CONTINUOUS
370
25
 62
7
100
AcDbLine
 10
94.42216446616224
 20
64.6768613008111
 30
0.0
 11
95.86675330075666
 21
63.2322724662167
 31
0.0
  0
LINE
  5
411
330
1F
100
AcDbEntity
  8
2
  6
CONTINUOUS
370
25
 62
7
100
AcDbLine
 10
94.49287514428089
 20
65.03041469140436
 30
0.0
 11
95.76068728357869
 21
63.76260255210657
 31
0.0
  0
LINE
  5
412
330
1F
100
AcDbEntity
  8
2
  6
CONTINUOUS
370
25
 62
7
100
AcDbLine
 10
94.56358582239955
 20
65.38396808199761
 30
0.0
 11
95.65462126640072
 21
64.29293263799644
 31
0.0
  0
LINE
  5
413
330
1F
100
AcDbEntity
  8
2
  6
CONTINUOUS
370
25
 62
7
100
AcDbLine
 10
94.6342965005182
 20
65.7375214725909
 30
0.0
 11
95.54855524922273
 21
64.82326272388637
 31
0.0
  0
LINE
  5
414
330
1F
100
AcDbEntity
  8
2
  6
CONTINUOUS
370
25
 62
7
100
AcDbLine
 10
94.70500717863685
 20
66.09107486318416
 30
0.0
 11
95.44248923204476
 21
65.35359280977626
 31
0.0
  0
LINE
  5
415
330
1F
100
AcDbEntity
  8
2
  6
CONTINUOUS
370
25
 62
7
100
AcDbLine
 10
94.7757178567555
 20
66.44462825377741
 30
0.0
 11
95.33642321486677
 21
65.88392289566616
 31
0.0
  0
LINE
  5
416
330
1F
100
AcDbEntity
  8
2
  6
CONTINUOUS
370
25
 62
7
100
AcDbLine
 10
94.84642853487416
 20
66.79818164437069
 30
0.0
 11
95.23035719768879
 21
66.41425298155607
 31
0.0
  0
LINE
  5
417
330
1F
100
AcDbEntity
  8
2
  6
CONTINUOUS
370
25
 62
7
100
AcDbLine
 10
94.91713921299282
 20
67.15173503496398
 30
0.0
 11
95.1242911805108
 21
66.944583067446
 31
0.0
  0
LINE
  5
418
330
1F
100
AcDbEntity
  8
2
  6
CONTINUOUS
370
25
 62
7
100
AcDbLine
 10
94.98784989111147
 20
67.50528842555724
 30
0.0
 11
95.01822516333283
 21
67.47491315333588
 31
0.0
  0
TEXT
  5
419
330
1F
100
AcDbEntity
  8
2
  6
CONTINUOUS
370
25
 62
7
100
AcDbText
 10
93.5
 20
-5.307294363333337
 30
0.0
 40
3.5
  1
135.13
 50
90.0
 72
     1
 11
93.5
 21
2.276038969999996
 31
0.0
100
AcDbText
  0
CIRCLE
  5
41A
330
1F
100
AcDbEntity
  8
2
  6
CONTINUOUS
370
25
 62
7
100
AcDbCircle
 10
91.75
 20
-8.923961030000005
 30
0.0
 40
1.4
  0
LINE
  5
41B
330
1F
100
AcDbEntity
  8
2
  6
CONTINUOUS
370
25
 62
7
100
AcDbLine
 10
93.15
 20
-10.32396103
 30
0.0
 11
90.35
 21
-7.523961030000004
 31
0.0
  0
LINE
  5
41C
330
1F
100
AcDbEntity
  8
2
  6
CONTINUOUS
370
25
 62
7
100
AcDbLine
 10
0.0
 20
-45.0
 30
0.0
 11
-23.0
 21
-45.0
 31
0.0
  0
LINE
  5
41D
330
1F
100
AcDbEntity
  8
2
  6
CONTINUOUS
370
25
 62
7
100
AcDbLine
 10
-22.99999999999999
 20
45.0
 30
0.0
 11
0.0000000000000071
 21
45.0
 31
0.0
  0
LINE
  5
41E
330
1F
100
AcDbEntity
  8
2
  6
CONTINUOUS
370
25
 62
7
100
AcDbLine
 10
-22.0
 20
-45.0
 30
0.0
 11
-22.0
 21
45.0
 31
0.0
  0
LINE
  5
41F
330
1F
100
AcDbEntity
  8
2
  6
CONTINUOUS
370
25
 62
7
100
AcDbLine
 10
-22.0
 20
-45.0
 30
0.0
 11
-23.0
 21
-40.0
 31
0.0
  0
LINE
  5
420
330
1F
100
AcDbEntity
  8
2
  6
CONTINUOUS
370
25
 62
7
100
AcDbLine
 10
-23.0
 20
-40.0
 30
0.0
 11
-21.0
 21
-40.0
 31
0.0
  0
LINE
  5
421
330
1F
100
AcDbEntity
  8
2
  6
CONTINUOUS
370
25
 62
7
100
AcDbLine
 10
-21.0
 20
-40.0
 30
0.0
 11
-22.0
 21
-45.0
 31
0.0
  0
LINE
  5
422
330
1F
100
AcDbEntity
  8
2
  6
CONTINUOUS
370
25
 62
7
100
AcDbLine
 10
-22.05854697802715
 20
-44.70726510986425
 30
0.0
 11
-21.91217953295927
 21
-44.56089766479636
 31
0.0
  0
LINE
  5
423
330
1F
100
AcDbEntity
  8
2
  6
CONTINUOUS
370
25
 62
7
100
AcDbLine
 10
-22.12925765614581
 20
-44.35371171927097
 30
0.0
 11
-21.80611351578129
 21
-44.03056757890646
 31
0.0
  0
LINE
  5
424
330
1F
100
AcDbEntity
  8
2
  6
CONTINUOUS
370
25
 62
7
100
AcDbLine
 10
-22.19996833426446
 20
-44.00015832867768
 30
0.0
 11
-21.70004749860331
 21
-43.50023749301654
 31
0.0
  0
LINE
  5
425
330
1F
100
AcDbEntity
  8
2
  6
CONTINUOUS
370
25
 62
7
100
AcDbLine
 10
-22.27067901238312
 20
-43.64660493808442
 30
0.0
 11
-21.59398148142532
 21
-42.96990740712663
 31
0.0
  0
LINE
  5
426
330
1F
100
AcDbEntity
  8
2
  6
CONTINUOUS
370
25
 62
7
100
AcDbLine
 10
-22.34138969050177
 20
-43.29305154749114
 30
0.0
 11
-21.48791546424734
 21
-42.43957732123671
 31
0.0
  0
LINE
  5
427
330
1F
100
AcDbEntity
  8
2
  6
CONTINUOUS
370
25
 62
7
100
AcDbLine
 10
-22.41210036862043
 20
-42.93949815689787
 30
0.0
 11
-21.38184944706936
 21
-41.9092472353468
 31
0.0
  0
LINE
  5
428
330
1F
100
AcDbEntity
  8
2
  6
CONTINUOUS
370
25
 62
7
100
AcDbLine
 10
-22.48281104673908
 20
-42.58594476630459
 30
0.0
 11
-21.27578342989138
 21
-41.37891714945688
 31
0.0
  0
LINE
  5
429
330
1F
100
AcDbEntity
  8
2
  6
CONTINUOUS
370
25
 62
7
100
AcDbLine
 10
-22.55352172485773
 20
-42.23239137571131
 30
0.0
 11
-21.16971741271339
 21
-40.84858706356697
 31
0.0
  0
LINE
  5
42A
330
1F
100
AcDbEntity
  8
2
  6
CONTINUOUS
370
25
 62
7
100
AcDbLine
 10
-22.62423240297639
 20
-41.87883798511804
 30
0.0
 11
-21.06365139553541
 21
-40.31825697767705
 31
0.0
  0
LINE
  5
42B
330
1F
100
AcDbEntity
  8
2
  6
CONTINUOUS
370
25
 62
7
100
AcDbLine
 10
-22.69494308109505
 20
-41.52528459452476
 30
0.0
 11
-21.16965848657029
 21
-40.0
 31
0.0
  0
LINE
  5
42C
330
1F
100
AcDbEntity
  8
2
  6
CONTINUOUS
370
25
 62
7
100
AcDbLine
 10
-22.76565375921371
 20
-41.17173120393149
 30
0.0
 11
-21.59392255528222
 21
-40.0
 31
0.0
  0
LINE
  5
42D
330
1F
100
AcDbEntity
  8
2
  6
CONTINUOUS
370
25
 62
7
100
AcDbLine
 10
-22.83636443733236
 20
-40.81817781333821
 30
0.0
 11
-22.01818662399415
 21
-40.0
 31
0.0
  0
LINE
  5
42E
330
1F
100
AcDbEntity
  8
2
  6
CONTINUOUS
370
25
 62
7
100
AcDbLine
 10
-22.90707511545101
 20
-40.46462442274493
 30
0.0
 11
-22.44245069270608
 21
-40.0
 31
0.0
  0
LINE
  5
42F
330
1F
100
AcDbEntity
  8
2
  6
CONTINUOUS
370
25
 62
7
100
AcDbLine
 10
-22.97778579356967
 20
-40.11107103215166
 30
0.0
 11
-22.86671476141801
 21
-40.0
 31
0.0
  0
LINE
  5
430
330
1F
100
AcDbEntity
  8
2
  6
CONTINUOUS
370
25
 62
7
100
AcDbLine
 10
-22.01262023637288
 20
-44.93689881813562
 30
0.0
 11
-21.99158650908475
 21
-44.95793254542374
 31
0.0
  0
LINE
  5
431
330
1F
100
AcDbEntity
  8
2
  6
CONTINUOUS
370
25
 62
7
100
AcDbLine
 10
-22.11868625355086
 20
-44.4065687322457
 30
0.0
 11
-21.92087583096609
 21
-44.60437915483047
 31
0.0
  0
LINE
  5
432
330
1F
100
AcDbEntity
  8
2
  6
CONTINUOUS
370
25
 62
7
100
AcDbLine
 10
-22.22475227072884
 20
-43.8762386463558
 30
0.0
 11
-21.85016515284744
 21
-44.25082576423721
 31
0.0
  0
LINE
  5
433
330
1F
100
AcDbEntity
  8
2
  6
CONTINUOUS
370
25
 62
7
100
AcDbLine
 10
-22.33081828790682
 20
-43.34590856046589
 30
0.0
 11
-21.77945447472878
 21
-43.89727237364393
 31
0.0
  0
LINE
  5
434
330
1F
100
AcDbEntity
  8
2
  6
CONTINUOUS
370
25
 62
7
100
AcDbLine
 10
-22.43688430508481
 20
-42.81557847457597
 30
0.0
 11
-21.70874379661013
 21
-43.54371898305065
 31
0.0
  0
LINE
  5
435
330
1F
100
AcDbEntity
  8
2
  6
CONTINUOUS
370
25
 62
7
100
AcDbLine
 10
-22.54295032226279
 20
-42.28524838868607
 30
0.0
 11
-21.63803311849147
 21
-43.19016559245738
 31
0.0
  0
LINE
  5
436
330
1F
100
AcDbEntity
  8
2
  6
CONTINUOUS
370
25
 62
7
100
AcDbLine
 10
-22.64901633944077
 20
-41.75491830279615
 30
0.0
 11
-21.56732244037282
 21
-42.8366122018641
 31
0.0
  0
LINE
  5
437
330
1F
100
AcDbEntity
  8
2
  6
CONTINUOUS
370
25
 62
7
100
AcDbLine
 10
-22.75508235661875
 20
-41.22458821690623
 30
0.0
 11
-21.49661176225416
 21
-42.48305881127082
 31
0.0
  0
LINE
  5
438
330
1F
100
AcDbEntity
  8
2
  6
CONTINUOUS
370
25
 62
7
100
AcDbLine
 10
-22.86114837379673
 20
-40.69425813101633
 30
0.0
 11
-21.42590108413551
 21
-42.12950542067755
 31
0.0
  0
LINE
  5
439
330
1F
100
AcDbEntity
  8
2
  6
CONTINUOUS
370
25
 62
7
100
AcDbLine
 10
-22.96721439097472
 20
-40.16392804512641
 30
0.0
 11
-21.35519040601685
 21
-41.77595203008427
 31
0.0
  0
LINE
  5
43A
330
1F
100
AcDbEntity
  8
2
  6
CONTINUOUS
370
25
 62
7
100
AcDbLine
 10
-22.70687836738919
 20
-40.0
 30
0.0
 11
-21.2844797278982
 21
-41.42239863949099
 31
0.0
  0
LINE
  5
43B
330
1F
100
AcDbEntity
  8
2
  6
CONTINUOUS
370
25
 62
7
100
AcDbLine
 10
-22.28261429867726
 20
-40.0
 30
0.0
 11
-21.21376904977954
 21
-41.06884524889772
 31
0.0
  0
LINE
  5
43C
330
1F
100
AcDbEntity
  8
2
  6
CONTINUOUS
370
25
 62
7
100
AcDbLine
 10
-21.85835022996534
 20
-40.0
 30
0.0
 11
-21.14305837166089
 21
-40.71529185830445
 31
0.0
  0
LINE
  5
43D
330
1F
100
AcDbEntity
  8
2
  6
CONTINUOUS
370
25
 62
7
100
AcDbLine
 10
-21.4340861612534
 20
-40.0
 30
0.0
 11
-21.07234769354223
 21
-40.36173846771116
 31
0.0
  0
LINE
  5
43E
330
1F
100
AcDbEntity
  8
2
  6
CONTINUOUS
370
25
 62
7
100
AcDbLine
 10
-21.00982209254147
 20
-40.0
 30
0.0
 11
-21.00163701542358
 21
-40.00818507711789
 31
0.0
  0
LINE
  5
43F
330
1F
100
AcDbEntity
  8
2
  6
CONTINUOUS
370
25
 62
7
100
AcDbLine
 10
-21.99999999999999
 20
45.0
 30
0.0
 11
-20.99999999999999
 21
40.0
 31
0.0
  0
LINE
  5
440
330
1F
100
AcDbEntity
  8
2
  6
CONTINUOUS
370
25
 62
7
100
AcDbLine
 10
-20.99999999999999
 20
40.0
 30
0.0
 11
-22.99999999999999
 21
40.0
 31
0.0
  0
LINE
  5
441
330
1F
100
AcDbEntity
  8
2
  6
CONTINUOUS
370
25
 62
7
100
AcDbLine
 10
-22.99999999999999
 20
40.0
 30
0.0
 11
-21.99999999999999
 21
45.0
 31
0.0
  0
LINE
  5
442
330
1F
100
AcDbEntity
  8
2
  6
CONTINUOUS
370
25
 62
7
100
AcDbLine
 10
-21.09402589451771
 20
40.0
 30
0.0
 11
-21.01567098241961
 21
40.0783549120981
 31
0.0
  0
LINE
  5
443
330
1F
100
AcDbEntity
  8
2
  6
CONTINUOUS
370
25
 62
7
100
AcDbLine
 10
-21.51828996322964
 20
40.0
 30
0.0
 11
-21.08638166053827
 21
40.43190830269137
 31
0.0
  0
LINE
  5
444
330
1F
100
AcDbEntity
  8
2
  6
CONTINUOUS
370
25
 62
7
100
AcDbLine
 10
-21.94255403194157
 20
40.0
 30
0.0
 11
-21.15709233865692
 21
40.78546169328465
 31
0.0
  0
LINE
  5
445
330
1F
100
AcDbEntity
  8
2
  6
CONTINUOUS
370
25
 62
7
100
AcDbLine
 10
-22.3668181006535
 20
40.0
 30
0.0
 11
-21.22780301677558
 21
41.13901508387792
 31
0.0
  0
LINE
  5
446
330
1F
100
AcDbEntity
  8
2
  6
CONTINUOUS
370
25
 62
7
100
AcDbLine
 10
-22.79108216936544
 20
40.0
 30
0.0
 11
-21.29851369489424
 21
41.4925684744712
 31
0.0
  0
LINE
  5
447
330
1F
100
AcDbEntity
  8
2
  6
CONTINUOUS
370
25
 62
7
100
AcDbLine
 10
-22.94616344048065
 20
40.26918279759671
 30
0.0
 11
-21.36922437301289
 21
41.84612186506448
 31
0.0
  0
LINE
  5
448
330
1F
100
AcDbEntity
  8
2
  6
CONTINUOUS
370
25
 62
7
100
AcDbLine
 10
-22.84009742330267
 20
40.79951288348663
 30
0.0
 11
-21.43993505113155
 21
42.19967525565775
 31
0.0
  0
LINE
  5
449
330
1F
100
AcDbEntity
  8
2
  6
CONTINUOUS
370
25
 62
7
100
AcDbLine
 10
-22.73403140612469
 20
41.32984296937654
 30
0.0
 11
-21.5106457292502
 21
42.55322864625103
 31
0.0
  0
LINE
  5
44A
330
1F
100
AcDbEntity
  8
2
  6
CONTINUOUS
370
25
 62
7
100
AcDbLine
 10
-22.6279653889467
 20
41.86017305526646
 30
0.0
 11
-21.58135640736885
 21
42.90678203684431
 31
0.0
  0
LINE
  5
44B
330
1F
100
AcDbEntity
  8
2
  6
CONTINUOUS
370
25
 62
7
100
AcDbLine
 10
-22.52189937176872
 20
42.39050314115638
 30
0.0
 11
-21.65206708548751
 21
43.26033542743758
 31
0.0
  0
LINE
  5
44C
330
1F
100
AcDbEntity
  8
2
  6
CONTINUOUS
370
25
 62
7
100
AcDbLine
 10
-22.41583335459074
 20
42.92083322704628
 30
0.0
 11
-21.72277776360616
 21
43.61388881803086
 31
0.0
  0
LINE
  5
44D
330
1F
100
AcDbEntity
  8
2
  6
CONTINUOUS
370
25
 62
7
100
AcDbLine
 10
-22.30976733741275
 20
43.4511633129362
 30
0.0
 11
-21.79348844172482
 21
43.96744220862413
 31
0.0
  0
LINE
  5
44E
330
1F
100
AcDbEntity
  8
2
  6
CONTINUOUS
370
25
 62
7
100
AcDbLine
 10
-22.20370132023477
 20
43.98149339882612
 30
0.0
 11
-21.86419911984348
 21
44.32099559921741
 31
0.0
  0
LINE
  5
44F
330
1F
100
AcDbEntity
  8
2
  6
CONTINUOUS
370
25
 62
7
100
AcDbLine
 10
-22.09763530305679
 20
44.51182348471602
 30
0.0
 11
-21.93490979796213
 21
44.67454898981067
 31
0.0
  0
LINE
  5
450
330
1F
100
AcDbEntity
  8
2
  6
CONTINUOUS
370
25
 62
7
100
AcDbLine
 10
-22.93419553046851
 20
40.32902234765743
 30
0.0
 11
-22.60517318281108
 21
40.0
 31
0.0
  0
LINE
  5
451
330
1F
100
AcDbEntity
  8
2
  6
CONTINUOUS
370
25
 62
7
100
AcDbLine
 10
-22.86348485234985
 20
40.6825757382507
 30
0.0
 11
-22.18090911409914
 21
40.0
 31
0.0
  0
LINE
  5
452
330
1F
100
AcDbEntity
  8
2
  6
CONTINUOUS
370
25
 62
7
100
AcDbLine
 10
-22.79277417423119
 20
41.03612912884398
 30
0.0
 11
-21.75664504538721
 21
40.0
 31
0.0
  0
LINE
  5
453
330
1F
100
AcDbEntity
  8
2
  6
CONTINUOUS
370
25
 62
7
100
AcDbLine
 10
-22.72206349611254
 20
41.38968251943726
 30
0.0
 11
-21.33238097667528
 21
40.0
 31
0.0
  0
LINE
  5
454
330
1F
100
AcDbEntity
  8
2
  6
CONTINUOUS
370
25
 62
7
100
AcDbLine
 10
-22.65135281799389
 20
41.74323591003053
 30
0.0
 11
-21.02297077300916
 21
40.11485386504581
 31
0.0
  0
LINE
  5
455
330
1F
100
AcDbEntity
  8
2
  6
CONTINUOUS
370
25
 62
7
100
AcDbLine
 10
-22.58064213987523
 20
42.09678930062381
 30
0.0
 11
-21.12903679018714
 21
40.64518395093572
 31
0.0
  0
LINE
  5
456
330
1F
100
AcDbEntity
  8
2
  6
CONTINUOUS
370
25
 62
7
100
AcDbLine
 10
-22.50993146175658
 20
42.45034269121709
 30
0.0
 11
-21.23510280736512
 21
41.17551403682563
 31
0.0
  0
LINE
  5
457
330
1F
100
AcDbEntity
  8
2
  6
CONTINUOUS
370
25
 62
7
100
AcDbLine
 10
-22.43922078363792
 20
42.80389608181036
 30
0.0
 11
-21.3411688245431
 21
41.70584412271555
 31
0.0
  0
LINE
  5
458
330
1F
100
AcDbEntity
  8
2
  6
CONTINUOUS
370
25
 62
7
100
AcDbLine
 10
-22.36851010551927
 20
43.15744947240364
 30
0.0
 11
-21.44723484172109
 21
42.23617420860546
 31
0.0
  0
LINE
  5
459
330
1F
100
AcDbEntity
  8
2
  6
CONTINUOUS
370
25
 62
7
100
AcDbLine
 10
-22.29779942740061
 20
43.51100286299692
 30
0.0
 11
-21.55330085889907
 21
42.76650429449538
 31
0.0
  0
LINE
  5
45A
330
1F
100
AcDbEntity
  8
2
  6
CONTINUOUS
370
25
 62
7
100
AcDbLine
 10
-22.22708874928196
 20
43.86455625359019
 30
0.0
 11
-21.65936687607705
 21
43.29683438038528
 31
0.0
  0
LINE
  5
45B
330
1F
100
AcDbEntity
  8
2
  6
CONTINUOUS
370
25
 62
7
100
AcDbLine
 10
-22.1563780711633
 20
44.21810964418346
 30
0.0
 11
-21.76543289325503
 21
43.8271644662752
 31
0.0
  0
LINE
  5
45C
330
1F
100
AcDbEntity
  8
2
  6
CONTINUOUS
370
25
 62
7
100
AcDbLine
 10
-22.08566739304465
 20
44.57166303477675
 30
0.0
 11
-21.87149891043302
 21
44.35749455216511
 31
0.0
  0
LINE
  5
45D
330
1F
100
AcDbEntity
  8
2
  6
CONTINUOUS
370
25
 62
7
100
AcDbLine
 10
-22.01495671492599
 20
44.92521642537001
 30
0.0
 11
-21.977564927611
 21
44.88782463805502
 31
0.0
  0
TEXT
  5
45E
330
1F
100
AcDbEntity
  8
2
  6
CONTINUOUS
370
25
 62
7
100
AcDbText
 10
-23.5
 20
-0.3500000000000001
 30
0.0
 40
3.5
  1
90
 50
90.0
 72
     1
 11
-23.5
 21
2.275
 31
0.0
100
AcDbText
  0
CIRCLE
  5
45F
330
1F
100
AcDbEntity
  8
2
  6
CONTINUOUS
370
25
 62
7
100
AcDbCircle
 10
-25.25
 20
-2.625
 30
0.0
 40
1.4
  0
LINE
  5
460
330
1F
100
AcDbEntity
  8
2
  6
CONTINUOUS
370
25
 62
7
100
AcDbLine
 10
-23.85
 20
-4.024999999999999
 30
0.0
 11
-26.65
 21
-1.224999999999999
 31
0.0
  0
LINE
  5
461
330
1F
100
AcDbEntity
  8
2
  6
CONTINUOUS
370
25
 62
7
100
AcDbLine
 10
63.0
 20
-16.5
 30
0.0
 11
76.0
 21
-16.5
 31
0.0
  0
LINE
  5
462
330
1F
100
AcDbEntity
  8
2
  6
CONTINUOUS
370
25
 62
7
100
AcDbLine
 10
76.0
 20
16.5
 30
0.0
 11
63.0
 21
16.5
 31
0.0
  0
LINE
  5
463
330
1F
100
AcDbEntity
  8
2
  6
CONTINUOUS
370
25
 62
7
100
AcDbLine
 10
75.0
 20
-16.5
 30
0.0
 11
75.0
 21
16.5
 31
0.0
  0
LINE
  5
464
330
1F
100
AcDbEntity
  8
2
  6
CONTINUOUS
370
25
 62
7
100
AcDbLine
 10
75.0
 20
-16.5
 30
0.0
 11
74.0
 21
-11.5
 31
0.0
  0
LINE
  5
465
330
1F
100
AcDbEntity
  8
2
  6
CONTINUOUS
370
25
 62
7
100
AcDbLine
 10
74.0
 20
-11.5
 30
0.0
 11
76.0
 21
-11.5
 31
0.0
  0
LINE
  5
466
330
1F
100
AcDbEntity
  8
2
  6
CONTINUOUS
370
25
 62
7
100
AcDbLine
 10
76.0
 20
-11.5
 30
0.0
 11
75.0
 21
-16.5
 31
0.0
  0
LINE
  5
467
330
1F
100
AcDbEntity
  8
2
  6
CONTINUOUS
370
25
 62
7
100
AcDbLine
 10
74.97370051153607
 20
-16.36850255768034
 30
0.0
 11
75.0394492326959
 21
-16.30275383652051
 31
0.0
  0
LINE
  5
468
330
1F
100
AcDbEntity
  8
2
  6
CONTINUOUS
370
25
 62
7
100
AcDbLine
 10
74.90298983341741
 20
-16.01494916708708
 30
0.0
 11
75.14551524987388
 21
-15.77242375063061
 31
0.0
  0
LINE
  5
469
330
1F
100
AcDbEntity
  8
2
  6
CONTINUOUS
370
25
 62
7
100
AcDbLine
 10
74.83227915529876
 20
-15.66139577649379
 30
0.0
 11
75.25158126705186
 21
-15.24209366474069
 31
0.0
  0
LINE
  5
46A
330
1F
100
AcDbEntity
  8
2
  6
CONTINUOUS
370
25
 62
7
100
AcDbLine
 10
74.7615684771801
 20
-15.30784238590053
 30
0.0
 11
75.35764728422984
 21
-14.71176357885079
 31
0.0
  0
LINE
  5
46B
330
1F
100
AcDbEntity
  8
2
  6
CONTINUOUS
370
25
 62
7
100
AcDbLine
 10
74.69085779906145
 20
-14.95428899530727
 30
0.0
 11
75.46371330140782
 21
-14.18143349296089
 31
0.0
  0
LINE
  5
46C
330
1F
100
AcDbEntity
  8
2
  6
CONTINUOUS
370
25
 62
7
100
AcDbLine
 10
74.6201471209428
 20
-14.60073560471399
 30
0.0
 11
75.5697793185858
 21
-13.65110340707099
 31
0.0
  0
LINE
  5
46D
330
1F
100
AcDbEntity
  8
2
  6
CONTINUOUS
370
25
 62
7
100
AcDbLine
 10
74.54943644282415
 20
-14.24718221412073
 30
0.0
 11
75.67584533576378
 21
-13.12077332118109
 31
0.0
  0
LINE
  5
46E
330
1F
100
AcDbEntity
  8
2
  6
CONTINUOUS
370
25
 62
7
100
AcDbLine
 10
74.47872576470549
 20
-13.89362882352745
 30
0.0
 11
75.78191135294176
 21
-12.59044323529118
 31
0.0
  0
LINE
  5
46F
330
1F
100
AcDbEntity
  8
2
  6
CONTINUOUS
370
25
 62
7
100
AcDbLine
 10
74.40801508658684
 20
-13.54007543293417
 30
0.0
 11
75.88797737011974
 21
-12.06011314940127
 31
0.0
  0
LINE
  5
470
330
1F
100
AcDbEntity
  8
2
  6
CONTINUOUS
370
25
 62
7
100
AcDbLine
 10
74.33730440846819
 20
-13.18652204234091
 30
0.0
 11
75.99404338729772
 21
-11.52978306351137
 31
0.0
  0
LINE
  5
471
330
1F
100
AcDbEntity
  8
2
  6
CONTINUOUS
370
25
 62
7
100
AcDbLine
 10
74.26659373034953
 20
-12.83296865174763
 30
0.0
 11
75.59956238209716
 21
-11.5
 31
0.0
  0
LINE
  5
472
330
1F
100
AcDbEntity
  8
2
  6
CONTINUOUS
370
25
 62
7
100
AcDbLine
 10
74.19588305223088
 20
-12.47941526115436
 30
0.0
 11
75.17529831338524
 21
-11.5
 31
0.0
  0
LINE
  5
473
330
1F
100
AcDbEntity
  8
2
  6
CONTINUOUS
370
25
 62
7
100
AcDbLine
 10
74.12517237411221
 20
-12.12586187056111
 30
0.0
 11
74.75103424467332
 21
-11.5
 31
0.0
  0
LINE
  5
474
330
1F
100
AcDbEntity
  8
2
  6
CONTINUOUS
370
25
 62
7
100
AcDbLine
 10
74.05446169599357
 20
-11.77230847996783
 30
0.0
 11
74.3267701759614
 21
-11.5
 31
0.0
  0
LINE
  5
475
330
1F
100
AcDbEntity
  8
2
  6
CONTINUOUS
370
25
 62
7
100
AcDbLine
 10
74.98788962943837
 20
-16.43944814719181
 30
0.0
 11
75.00807358037441
 21
-16.45963209812786
 31
0.0
  0
LINE
  5
476
330
1F
100
AcDbEntity
  8
2
  6
CONTINUOUS
370
25
 62
7
100
AcDbLine
 10
74.88182361226038
 20
-15.9091180613019
 30
0.0
 11
75.07878425849309
 21
-16.10607870753461
 31
0.0
  0
LINE
  5
477
330
1F
100
AcDbEntity
  8
2
  6
CONTINUOUS
370
25
 62
7
100
AcDbLine
 10
74.7757575950824
 20
-15.37878797541199
 30
0.0
 11
75.14949493661173
 21
-15.75252531694132
 31
0.0
  0
LINE
  5
478
330
1F
100
AcDbEntity
  8
2
  6
CONTINUOUS
370
25
 62
7
100
AcDbLine
 10
74.66969157790442
 20
-14.84845788952209
 30
0.0
 11
75.22020561473039
 21
-15.39897192634806
 31
0.0
  0
LINE
  5
479
330
1F
100
AcDbEntity
  8
2
  6
CONTINUOUS
370
25
 62
7
100
AcDbLine
 10
74.56362556072644
 20
-14.31812780363218
 30
0.0
 11
75.29091629284905
 21
-15.04541853575479
 31
0.0
  0
LINE
  5
47A
330
1F
100
AcDbEntity
  8
2
  6
CONTINUOUS
370
25
 62
7
100
AcDbLine
 10
74.45755954354846
 20
-13.78779771774228
 30
0.0
 11
75.36162697096769
 21
-14.69186514516151
 31
0.0
  0
LINE
  5
47B
330
1F
100
AcDbEntity
  8
2
  6
CONTINUOUS
370
25
 62
7
100
AcDbLine
 10
74.35149352637048
 20
-13.25746763185237
 30
0.0
 11
75.43233764908635
 21
-14.33831175456825
 31
0.0
  0
LINE
  5
47C
330
1F
100
AcDbEntity
  8
2
  6
CONTINUOUS
370
25
 62
7
100
AcDbLine
 10
74.2454275091925
 20
-12.72713754596247
 30
0.0
 11
75.50304832720501
 21
-13.98475836397498
 31
0.0
  0
LINE
  5
47D
330
1F
100
AcDbEntity
  8
2
  6
CONTINUOUS
370
25
 62
7
100
AcDbLine
 10
74.13936149201452
 20
-12.19680746007256
 30
0.0
 11
75.57375900532365
 21
-13.6312049733817
 31
0.0
  0
LINE
  5
47E
330
1F
100
AcDbEntity
  8
2
  6
CONTINUOUS
370
25
 62
7
100
AcDbLine
 10
74.03329547483654
 20
-11.66647737418266
 30
0.0
 11
75.64446968344231
 21
-13.27765158278844
 31
0.0
  0
LINE
  5
47F
330
1F
100
AcDbEntity
  8
2
  6
CONTINUOUS
370
25
 62
7
100
AcDbLine
 10
74.2910821693658
 20
-11.49999999999999
 30
0.0
 11
75.71518036156097
 21
-12.92409819219517
 31
0.0
  0
LINE
  5
480
330
1F
100
AcDbEntity
  8
2
  6
CONTINUOUS
370
25
 62
7
100
AcDbLine
 10
74.71534623807771
 20
-11.49999999999999
 30
0.0
 11
75.78589103967961
 21
-12.57054480160189
 31
0.0
  0
LINE
  5
481
330
1F
100
AcDbEntity
  8
2
  6
CONTINUOUS
370
25
 62
7
100
AcDbLine
 10
75.13961030678965
 20
-11.5
 30
0.0
 11
75.85660171779827
 21
-12.21699141100862
 31
0.0
  0
LINE
  5
482
330
1F
100
AcDbEntity
  8
2
  6
CONTINUOUS
370
25
 62
7
100
AcDbLine
 10
75.56387437550157
 20
-11.5
 30
0.0
 11
75.92731239591693
 21
-11.86343802041536
 31
0.0
  0
LINE
  5
483
330
1F
100
AcDbEntity
  8
2
  6
CONTINUOUS
370
25
 62
7
100
AcDbLine
 10
75.98813844421349
 20
-11.5
 30
0.0
 11
75.99802307403559
 21
-11.5098846298221
 31
0.0
  0
LINE
  5
484
330
1F
100
AcDbEntity
  8
2
  6
CONTINUOUS
370
25
 62
7
100
AcDbLine
 10
75.0
 20
16.5
 30
0.0
 11
76.0
 21
11.5
 31
0.0
  0
LINE
  5
485
330
1F
100
AcDbEntity
  8
2
  6
CONTINUOUS
370
25
 62
7
100
AcDbLine
 10
76.0
 20
11.5
 30
0.0
 11
74.0
 21
11.5
 31
0.0
  0
LINE
  5
486
330
1F
100
AcDbEntity
  8
2
  6
CONTINUOUS
370
25
 62
7
100
AcDbLine
 10
74.0
 20
11.5
 30
0.0
 11
75.0
 21
16.5
 31
0.0
  0
LINE
  5
487
330
1F
100
AcDbEntity
  8
2
  6
CONTINUOUS
370
25
 62
7
100
AcDbLine
 10
75.69215974162744
 20
11.5
 30
0.0
 11
75.94869329027124
 21
11.7565335486438
 31
0.0
  0
LINE
  5
488
330
1F
100
AcDbEntity
  8
2
  6
CONTINUOUS
370
25
 62
7
100
AcDbLine
 10
75.26789567291551
 20
11.5
 30
0.0
 11
75.87798261215259
 21
12.11008693923708
 31
0.0
  0
LINE
  5
489
330
1F
100
AcDbEntity
  8
2
  6
CONTINUOUS
370
25
 62
7
100
AcDbLine
 10
74.8436316042036
 20
11.5
 30
0.0
 11
75.80727193403393
 21
12.46364032983034
 31
0.0
  0
LINE
  5
48A
330
1F
100
AcDbEntity
  8
2
  6
CONTINUOUS
370
25
 62
7
100
AcDbLine
 10
74.41936753549166
 20
11.49999999999999
 30
0.0
 11
75.73656125591528
 21
12.81719372042361
 31
0.0
  0
LINE
  5
48B
330
1F
100
AcDbEntity
  8
2
  6
CONTINUOUS
370
25
 62
7
100
AcDbLine
 10
74.00122413330507
 20
11.50612066652533
 30
0.0
 11
75.66585057779662
 21
13.17074711101688
 31
0.0
  0
LINE
  5
48C
330
1F
100
AcDbEntity
  8
2
  6
CONTINUOUS
370
25
 62
7
100
AcDbLine
 10
74.10729015048304
 20
12.03645075241522
 30
0.0
 11
75.59513989967797
 21
13.52430050161016
 31
0.0
  0
LINE
  5
48D
330
1F
100
AcDbEntity
  8
2
  6
CONTINUOUS
370
25
 62
7
100
AcDbLine
 10
74.21335616766103
 20
12.56678083830514
 30
0.0
 11
75.52442922155932
 21
13.87785389220342
 31
0.0
  0
LINE
  5
48E
330
1F
100
AcDbEntity
  8
2
  6
CONTINUOUS
370
25
 62
7
100
AcDbLine
 10
74.31942218483901
 20
13.09711092419504
 30
0.0
 11
75.45371854344066
 21
14.23140728279669
 31
0.0
  0
LINE
  5
48F
330
1F
100
AcDbEntity
  8
2
  6
CONTINUOUS
370
25
 62
7
100
AcDbLine
 10
74.425488202017
 20
13.62744101008495
 30
0.0
 11
75.383007865322
 21
14.58496067338996
 31
0.0
  0
LINE
  5
490
330
1F
100
AcDbEntity
  8
2
  6
CONTINUOUS
370
25
 62
7
100
AcDbLine
 10
74.53155421919497
 20
14.15777109597485
 30
0.0
 11
75.31229718720336
 21
14.93851406398323
 31
0.0
  0
LINE
  5
491
330
1F
100
AcDbEntity
  8
2
  6
CONTINUOUS
370
25
 62
7
100
AcDbLine
 10
74.63762023637295
 20
14.68810118186475
 30
0.0
 11
75.2415865090847
 21
15.2920674545765
 31
0.0
  0
LINE
  5
492
330
1F
100
AcDbEntity
  8
2
  6
CONTINUOUS
370
25
 62
7
100
AcDbLine
 10
74.74368625355093
 20
15.21843126775466
 30
0.0
 11
75.17087583096604
 21
15.64562084516977
 31
0.0
  0
LINE
  5
493
330
1F
100
AcDbEntity
  8
2
  6
CONTINUOUS
370
25
 62
7
100
AcDbLine
 10
74.84975227072891
 20
15.74876135364457
 30
0.0
 11
75.1001651528474
 21
15.99917423576305
 31
0.0
  0
LINE
  5
494
330
1F
100
AcDbEntity
  8
2
  6
CONTINUOUS
370
25
 62
7
100
AcDbLine
 10
74.9558182879069
 20
16.27909143953447
 30
0.0
 11
75.02945447472874
 21
16.35272762635631
 31
0.0
  0
LINE
  5
495
330
1F
100
AcDbEntity
  8
2
  6
CONTINUOUS
370
25
 62
7
100
AcDbLine
 10
74.0335569799683
 20
11.66778489984148
 30
0.0
 11
74.20134187980977
 21
11.5
 31
0.0
  0
LINE
  5
496
330
1F
100
AcDbEntity
  8
2
  6
CONTINUOUS
370
25
 62
7
100
AcDbLine
 10
74.10426765808695
 20
12.02133829043476
 30
0.0
 11
74.62560594852171
 21
11.5
 31
0.0
  0
LINE
  5
497
330
1F
100
AcDbEntity
  8
2
  6
CONTINUOUS
370
25
 62
7
100
AcDbLine
 10
74.1749783362056
 20
12.37489168102805
 30
0.0
 11
75.04987001723364
 21
11.5
 31
0.0
  0
LINE
  5
498
330
1F
100
AcDbEntity
  8
2
  6
CONTINUOUS
370
25
 62
7
100
AcDbLine
 10
74.24568901432426
 20
12.72844507162131
 30
0.0
 11
75.47413408594556
 21
11.5
 31
0.0
  0
LINE
  5
499
330
1F
100
AcDbEntity
  8
2
  6
CONTINUOUS
370
25
 62
7
100
AcDbLine
 10
74.31639969244291
 20
13.08199846221457
 30
0.0
 11
75.89839815465749
 21
11.5
 31
0.0
  0
LINE
  5
49A
330
1F
100
AcDbEntity
  8
2
  6
CONTINUOUS
370
25
 62
7
100
AcDbLine
 10
74.38711037056156
 20
13.43555185280785
 30
0.0
 11
75.91933444415766
 21
11.90332777921175
 31
0.0
  0
LINE
  5
49B
330
1F
100
AcDbEntity
  8
2
  6
CONTINUOUS
370
25
 62
7
100
AcDbLine
 10
74.45782104868022
 20
13.78910524340111
 30
0.0
 11
75.81326842697968
 21
12.43365786510165
 31
0.0
  0
LINE
  5
49C
330
1F
100
AcDbEntity
  8
2
  6
CONTINUOUS
370
25
 62
7
100
AcDbLine
 10
74.52853172679887
 20
14.14265863399439
 30
0.0
 11
75.7072024098017
 21
12.96398795099157
 31
0.0
  0
LINE
  5
49D
330
1F
100
AcDbEntity
  8
2
  6
CONTINUOUS
370
25
 62
7
100
AcDbLine
 10
74.59924240491752
 20
14.49621202458765
 30
0.0
 11
75.60113639262372
 21
13.49431803688145
 31
0.0
  0
LINE
  5
49E
330
1F
100
AcDbEntity
  8
2
  6
CONTINUOUS
370
25
 62
7
100
AcDbLine
 10
74.66995308303618
 20
14.84976541518091
 30
0.0
 11
75.49507037544574
 21
14.02464812277135
 31
0.0
  0
LINE
  5
49F
330
1F
100
AcDbEntity
  8
2
  6
CONTINUOUS
370
25
 62
7
100
AcDbLine
 10
74.74066376115483
 20
15.20331880577417
 30
0.0
 11
75.38900435826775
 21
14.55497820866125
 31
0.0
  0
LINE
  5
4A0
330
1F
100
AcDbEntity
  8
2
  6
CONTINUOUS
370
25
 62
7
100
AcDbLine
 10
74.81137443927348
 20
15.55687219636746
 30
0.0
 11
75.28293834108977
 21
15.08530829455117
 31
0.0
  0
LINE
  5
4A1
330
1F
100
AcDbEntity
  8
2
  6
CONTINUOUS
370
25
 62
7
100
AcDbLine
 10
74.88208511739214
 20
15.91042558696073
 30
0.0
 11
75.1768723239118
 21
15.61563838044107
 31
0.0
  0
LINE
  5
4A2
330
1F
100
AcDbEntity
  8
2
  6
CONTINUOUS
370
25
 62
7
100
AcDbLine
 10
74.9527957955108
 20
16.26397897755399
 30
0.0
 11
75.07080630673381
 21
16.14596846633097
 31
0.0
  0
TEXT
  5
4A3
330
1F
100
AcDbEntity
  8
2
  6
CONTINUOUS
370
25
 62
7
100
AcDbText
 10
73.5
 20
-0.641666666666667
 30
0.0
 40
3.5
  1
33
 50
90.0
 72
     1
 11
73.5
 21
2.275
 31
0.0
100
AcDbText
  0
CIRCLE
  5
4A4
330
1F
100
AcDbEntity
  8
2
  6
CONTINUOUS
370
25
 62
7
100
AcDbCircle
 10
71.75
 20
-2.625
 30
0.0
 40
1.4
  0
LINE
  5
4A5
330
1F
100
AcDbEntity
  8
2
  6
CONTINUOUS
370
25
 62
7
100
AcDbLine
 10
73.15
 20
-4.024999999999999
 30
0.0
 11
70.35
 21
-1.224999999999999
 31
0.0
  0
LINE
  5
4A6
330
1F
100
AcDbEntity
  8
2
  6
CONTINUOUS
370
25
 62
7
100
AcDbLine
 10
59.5
 20
-68.86396103
 30
0.0
 11
59.5
 21
-80.19384923
 31
0.0
  0
LINE
  5
4A7
330
1F
100
AcDbEntity
  8
2
  6
CONTINUOUS
370
25
 62
7
100
AcDbLine
 10
63.0
 20
-80.19384923
 30
0.0
 11
63.0
 21
-62.5
 31
0.0
  0
LINE
  5
4A8
330
1F
100
AcDbEntity
  8
2
  6
CONTINUOUS
370
25
 62
7
100
AcDbLine
 10
52.5
 20
-79.19384923
 30
0.0
 11
78.925
 21
-79.19384923
 31
0.0
  0
LINE
  5
4A9
330
1F
100
AcDbEntity
  8
2
  6
CONTINUOUS
370
25
 62
7
100
AcDbLine
 10
59.5
 20
-79.19384923
 30
0.0
 11
54.5
 21
-80.19384923
 31
0.0
  0
LINE
  5
4AA
330
1F
100
AcDbEntity
  8
2
  6
CONTINUOUS
370
25
 62
7
100
AcDbLine
 10
54.5
 20
-80.19384923
 30
0.0
 11
54.5
 21
-78.19384923
 31
0.0
  0
LINE
  5
4AB
330
1F
100
AcDbEntity
  8
2
  6
CONTINUOUS
370
25
 62
7
100
AcDbLine
 10
54.5
 20
-78.19384923
 30
0.0
 11
59.5
 21
-79.19384923
 31
0.0
  0
LINE
  5
4AC
330
1F
100
AcDbEntity
  8
2
  6
CONTINUOUS
370
25
 62
7
100
AcDbLine
 10
59.42842584024051
 20
-79.2081640619519
 30
0.0
 11
59.45228389349369
 21
-79.18430600869873
 31
0.0
  0
LINE
  5
4AD
330
1F
100
AcDbEntity
  8
2
  6
CONTINUOUS
370
25
 62
7
100
AcDbLine
 10
58.89809575435061
 20
-79.31423007912989
 30
0.0
 11
59.09873050290042
 21
-79.11359533058007
 31
0.0
  0
LINE
  5
4AE
330
1F
100
AcDbEntity
  8
2
  6
CONTINUOUS
370
25
 62
7
100
AcDbLine
 10
58.36776566846067
 20
-79.42029609630788
 30
0.0
 11
58.74517711230713
 21
-79.04288465246142
 31
0.0
  0
LINE
  5
4AF
330
1F
100
AcDbEntity
  8
2
  6
CONTINUOUS
370
25
 62
7
100
AcDbLine
 10
57.83743558257077
 20
-79.52636211348585
 30
0.0
 11
58.39162372171386
 21
-78.97217397434275
 31
0.0
  0
LINE
  5
4B0
330
1F
100
AcDbEntity
  8
2
  6
CONTINUOUS
370
25
 62
7
100
AcDbLine
 10
57.30710549668087
 20
-79.63242813066384
 30
0.0
 11
58.03807033112059
 21
-78.90146329622411
 31
0.0
  0
LINE
  5
4B1
330
1F
100
AcDbEntity
  8
2
  6
CONTINUOUS
370
25
 62
7
100
AcDbLine
 10
56.77677541079097
 20
-79.7384941478418
 30
0.0
 11
57.68451694052732
 21
-78.83075261810546
 31
0.0
  0
LINE
  5
4B2
330
1F
100
AcDbEntity
  8
2
  6
CONTINUOUS
370
25
 62
7
100
AcDbLine
 10
56.24644532490107
 20
-79.8445601650198
 30
0.0
 11
57.33096354993406
 21
-78.76004193998679
 31
0.0
  0
LINE
  5
4B3
330
1F
100
AcDbEntity
  8
2
  6
CONTINUOUS
370
25
 62
7
100
AcDbLine
 10
55.71611523901113
 20
-79.95062618219778
 30
0.0
 11
56.97741015934077
 21
-78.68933126186815
 31
0.0
  0
LINE
  5
4B4
330
1F
100
AcDbEntity
  8
2
  6
CONTINUOUS
370
25
 62
7
100
AcDbLine
 10
55.18578515312123
 20
-80.05669219937576
 30
0.0
 11
56.6238567687475
 21
-78.61862058374949
 31
0.0
  0
LINE
  5
4B5
330
1F
100
AcDbEntity
  8
2
  6
CONTINUOUS
370
25
 62
7
100
AcDbLine
 10
54.65545506723133
 20
-80.16275821655374
 30
0.0
 11
56.27030337815423
 21
-78.54790990563083
 31
0.0
  0
LINE
  5
4B6
330
1F
100
AcDbEntity
  8
2
  6
CONTINUOUS
370
25
 62
7
100
AcDbLine
 10
54.5
 20
-79.89394921507312
 30
0.0
 11
55.91674998756094
 21
-78.47719922751219
 31
0.0
  0
LINE
  5
4B7
330
1F
100
AcDbEntity
  8
2
  6
CONTINUOUS
370
25
 62
7
100
AcDbLine
 10
54.5
 20
-79.4696851463612
 30
0.0
 11
55.56319659696768
 21
-78.40648854939352
 31
0.0
  0
LINE
  5
4B8
330
1F
100
AcDbEntity
  8
2
  6
CONTINUOUS
370
25
 62
7
100
AcDbLine
 10
54.5
 20
-79.04542107764928
 30
0.0
 11
55.20964320637441
 21
-78.33577787127487
 31
0.0
  0
LINE
  5
4B9
330
1F
100
AcDbEntity
  8
2
  6
CONTINUOUS
370
25
 62
7
100
AcDbLine
 10
54.5
 20
-78.62115700893736
 30
0.0
 11
54.85608981578114
 21
-78.26506719315623
 31
0.0
  0
LINE
  5
4BA
330
1F
100
AcDbEntity
  8
2
  6
CONTINUOUS
370
25
 62
7
100
AcDbLine
 10
54.5
 20
-78.19689294022544
 30
0.0
 11
54.50253642518788
 21
-78.19435651503755
 31
0.0
  0
LINE
  5
4BB
330
1F
100
AcDbEntity
  8
2
  6
CONTINUOUS
370
25
 62
7
100
AcDbLine
 10
54.5
 20
-80.11215252312448
 30
0.0
 11
54.56808058906293
 21
-80.18023311218741
 31
0.0
  0
LINE
  5
4BC
330
1F
100
AcDbEntity
  8
2
  6
CONTINUOUS
370
25
 62
7
100
AcDbLine
 10
54.5
 20
-79.68788845441256
 30
0.0
 11
54.92163397965621
 21
-80.10952243406877
 31
0.0
  0
LINE
  5
4BD
330
1F
100
AcDbEntity
  8
2
  6
CONTINUOUS
370
25
 62
7
100
AcDbLine
 10
54.5
 20
-79.26362438570064
 30
0.0
 11
55.27518737024948
 21
-80.03881175595012
 31
0.0
  0
LINE
  5
4BE
330
1F
100
AcDbEntity
  8
2
  6
CONTINUOUS
370
25
 62
7
100
AcDbLine
 10
54.5
 20
-78.8393603169887
 30
0.0
 11
55.62874076084275
 21
-79.96810107783145
 31
0.0
  0
LINE
  5
4BF
330
1F
100
AcDbEntity
  8
2
  6
CONTINUOUS
370
25
 62
7
100
AcDbLine
 10
54.5
 20
-78.41509624827677
 30
0.0
 11
55.98229415143602
 21
-79.8973903997128
 31
0.0
  0
LINE
  5
4C0
330
1F
100
AcDbEntity
  8
2
  6
CONTINUOUS
370
25
 62
7
100
AcDbLine
 10
54.75377131304393
 20
-78.24460349260877
 30
0.0
 11
56.3358475420293
 21
-79.82667972159415
 31
0.0
  0
LINE
  5
4C1
330
1F
100
AcDbEntity
  8
2
  6
CONTINUOUS
370
25
 62
7
100
AcDbLine
 10
55.28410139893384
 20
-78.35066950978675
 30
0.0
 11
56.68940093262258
 21
-79.75596904347549
 31
0.0
  0
LINE
  5
4C2
330
1F
100
AcDbEntity
  8
2
  6
CONTINUOUS
370
25
 62
7
100
AcDbLine
 10
55.81443148482375
 20
-78.45673552696474
 30
0.0
 11
57.04295432321585
 21
-79.68525836535684
 31
0.0
  0
LINE
  5
4C3
330
1F
100
AcDbEntity
  8
2
  6
CONTINUOUS
370
25
 62
7
100
AcDbLine
 10
56.34476157071366
 20
-78.56280154414273
 30
0.0
 11
57.39650771380911
 21
-79.61454768723817
 31
0.0
  0
LINE
  5
4C4
330
1F
100
AcDbEntity
  8
2
  6
CONTINUOUS
370
25
 62
7
100
AcDbLine
 10
56.87509165660357
 20
-78.6688675613207
 30
0.0
 11
57.75006110440239
 21
-79.54383700911953
 31
0.0
  0
LINE
  5
4C5
330
1F
100
AcDbEntity
  8
2
  6
CONTINUOUS
370
25
 62
7
100
AcDbLine
 10
57.40542174249347
 20
-78.77493357849869
 30
0.0
 11
58.10361449499567
 21
-79.47312633100088
 31
0.0
  0
LINE
  5
4C6
330
1F
100
AcDbEntity
  8
2
  6
CONTINUOUS
370
25
 62
7
100
AcDbLine
 10
57.93575182838339
 20
-78.88099959567667
 30
0.0
 11
58.45716788558894
 21
-79.40241565288221
 31
0.0
  0
LINE
  5
4C7
330
1F
100
AcDbEntity
  8
2
  6
CONTINUOUS
370
25
 62
7
100
AcDbLine
 10
58.4660819142733
 20
-78.98706561285465
 30
0.0
 11
58.81072127618221
 21
-79.33170497476357
 31
0.0
  0
LINE
  5
4C8
330
1F
100
AcDbEntity
  8
2
  6
CONTINUOUS
370
25
 62
7
100
AcDbLine
 10
58.9964120001632
 20
-79.09313163003263
 30
0.0
 11
59.16427466677548
 21
-79.26099429664491
 31
0.0
  0
LINE
  5
4C9
330
1F
100
AcDbEntity
  8
2
  6
CONTINUOUS
370
25
 62
7
100
AcDbLine
 10
63.0
 20
-79.19384923
 30
0.0
 11
68.0
 21
-78.19384923
 31
0.0
  0
LINE
  5
4CA
330
1F
100
AcDbEntity
  8
2
  6
CONTINUOUS
370
25
 62
7
100
AcDbLine
 10
68.0
 20
-78.19384923
 30
0.0
 11
68.0
 21
-80.19384923
 31
0.0
  0
LINE
  5
4CB
330
1F
100
AcDbEntity
  8
2
  6
CONTINUOUS
370
25
 62
7
100
AcDbLine
 10
68.0
 20
-80.19384923
 30
0.0
 11
63.0
 21
-79.19384923
 31
0.0
  0
LINE
  5
4CC
330
1F
100
AcDbEntity
  8
2
  6
CONTINUOUS
370
25
 62
7
100
AcDbLine
 10
67.83832286281489
 20
-80.16151380256296
 30
0.0
 11
68.0
 21
-79.99983666537786
 31
0.0
  0
LINE
  5
4CD
330
1F
100
AcDbEntity
  8
2
  6
CONTINUOUS
370
25
 62
7
100
AcDbLine
 10
67.48476947222161
 20
-80.0908031244443
 30
0.0
 11
68.0
 21
-79.57557259666594
 31
0.0
  0
LINE
  5
4CE
330
1F
100
AcDbEntity
  8
2
  6
CONTINUOUS
370
25
 62
7
100
AcDbLine
 10
67.13121608162835
 20
-80.02009244632565
 30
0.0
 11
68.0
 21
-79.151308527954
 31
0.0
  0
LINE
  5
4CF
330
1F
100
AcDbEntity
  8
2
  6
CONTINUOUS
370
25
 62
7
100
AcDbLine
 10
66.77766269103506
 20
-79.94938176820702
 30
0.0
 11
68.0
 21
-78.72704445924208
 31
0.0
  0
LINE
  5
4D0
330
1F
100
AcDbEntity
  8
2
  6
CONTINUOUS
370
25
 62
7
100
AcDbLine
 10
66.42410930044178
 20
-79.87867109008836
 30
0.0
 11
68.0
 21
-78.30278039053015
 31
0.0
  0
LINE
  5
4D1
330
1F
100
AcDbEntity
  8
2
  6
CONTINUOUS
370
25
 62
7
100
AcDbLine
 10
66.07055590984852
 20
-79.80796041196969
 30
0.0
 11
67.60583386477276
 21
-78.27268245704546
 31
0.0
  0
LINE
  5
4D2
330
1F
100
AcDbEntity
  8
2
  6
CONTINUOUS
370
25
 62
7
100
AcDbLine
 10
65.71700251925525
 20
-79.73724973385103
 30
0.0
 11
67.07550377888286
 21
-78.37874847422343
 31
0.0
  0
LINE
  5
4D3
330
1F
100
AcDbEntity
  8
2
  6
CONTINUOUS
370
25
 62
7
100
AcDbLine
 10
65.36344912866197
 20
-79.66653905573239
 30
0.0
 11
66.54517369299295
 21
-78.48481449140142
 31
0.0
  0
LINE
  5
4D4
330
1F
100
AcDbEntity
  8
2
  6
CONTINUOUS
370
25
 62
7
100
AcDbLine
 10
65.00989573806872
 20
-79.59582837761373
 30
0.0
 11
66.01484360710307
 21
-78.59088050857939
 31
0.0
  0
LINE
  5
4D5
330
1F
100
AcDbEntity
  8
2
  6
CONTINUOUS
370
25
 62
7
100
AcDbLine
 10
64.65634234747544
 20
-79.52511769949507
 30
0.0
 11
65.48451352121315
 21
-78.69694652575738
 31
0.0
  0
LINE
  5
4D6
330
1F
100
AcDbEntity
  8
2
  6
CONTINUOUS
370
25
 62
7
100
AcDbLine
 10
64.30278895688217
 20
-79.45440702137643
 30
0.0
 11
64.95418343532324
 21
-78.80301254293535
 31
0.0
  0
LINE
  5
4D7
330
1F
100
AcDbEntity
  8
2
  6
CONTINUOUS
370
25
 62
7
100
AcDbLine
 10
63.94923556628889
 20
-79.38369634325777
 30
0.0
 11
64.42385334943332
 21
-78.90907856011334
 31
0.0
  0
LINE
  5
4D8
330
1F
100
AcDbEntity
  8
2
  6
CONTINUOUS
370
25
 62
7
100
AcDbLine
 10
63.59568217569564
 20
-79.31298566513911
 30
0.0
 11
63.89352326354344
 21
-79.01514457729132
 31
0.0
  0
LINE
  5
4D9
330
1F
100
AcDbEntity
  8
2
  6
CONTINUOUS
370
25
 62
7
100
AcDbLine
 10
63.24212878510236
 20
-79.24227498702047
 30
0.0
 11
63.36319317765352
 21
-79.1212105944693
 31
0.0
  0
LINE
  5
4DA
330
1F
100
AcDbEntity
  8
2
  6
CONTINUOUS
370
25
 62
7
100
AcDbLine
 10
63.3076729489773
 20
-79.13231464020456
 30
0.0
 11
63.46150942346593
 21
-79.28615111469318
 31
0.0
  0
LINE
  5
4DB
330
1F
100
AcDbEntity
  8
2
  6
CONTINUOUS
370
25
 62
7
100
AcDbLine
 10
63.66122633957058
 20
-79.0616039620859
 30
0.0
 11
63.99183950935583
 21
-79.39221713187115
 31
0.0
  0
LINE
  5
4DC
330
1F
100
AcDbEntity
  8
2
  6
CONTINUOUS
370
25
 62
7
100
AcDbLine
 10
64.01477973016384
 20
-78.99089328396724
 30
0.0
 11
64.52216959524574
 21
-79.49828314904914
 31
0.0
  0
LINE
  5
4DD
330
1F
100
AcDbEntity
  8
2
  6
CONTINUOUS
370
25
 62
7
100
AcDbLine
 10
64.36833312075711
 20
-78.92018260584858
 30
0.0
 11
65.05249968113564
 21
-79.60434916622712
 31
0.0
  0
LINE
  5
4DE
330
1F
100
AcDbEntity
  8
2
  6
CONTINUOUS
370
25
 62
7
100
AcDbLine
 10
64.72188651135038
 20
-78.84947192772992
 30
0.0
 11
65.58282976702553
 21
-79.71041518340509
 31
0.0
  0
LINE
  5
4DF
330
1F
100
AcDbEntity
  8
2
  6
CONTINUOUS
370
25
 62
7
100
AcDbLine
 10
65.07543990194365
 20
-78.77876124961128
 30
0.0
 11
66.11315985291544
 21
-79.81648120058307
 31
0.0
  0
LINE
  5
4E0
330
1F
100
AcDbEntity
  8
2
  6
CONTINUOUS
370
25
 62
7
100
AcDbLine
 10
65.42899329253692
 20
-78.70805057149262
 30
0.0
 11
66.64348993880535
 21
-79.92254721776106
 31
0.0
  0
LINE
  5
4E1
330
1F
100
AcDbEntity
  8
2
  6
CONTINUOUS
370
25
 62
7
100
AcDbLine
 10
65.78254668313019
 20
-78.63733989337396
 30
0.0
 11
67.17382002469525
 21
-80.02861323493903
 31
0.0
  0
LINE
  5
4E2
330
1F
100
AcDbEntity
  8
2
  6
CONTINUOUS
370
25
 62
7
100
AcDbLine
 10
66.13610007372345
 20
-78.56662921525532
 30
0.0
 11
67.70415011058513
 21
-80.13467925211701
 31
0.0
  0
LINE
  5
4E3
330
1F
100
AcDbEntity
  8
2
  6
CONTINUOUS
370
25
 62
7
100
AcDbLine
 10
66.48965346431673
 20
-78.49591853713667
 30
0.0
 11
68.0
 21
-80.00626507281996
 31
0.0
  0
LINE
  5
4E4
330
1F
100
AcDbEntity
  8
2
  6
CONTINUOUS
370
25
 62
7
100
AcDbLine
 10
66.84320685491
 20
-78.425207859018
 30
0.0
 11
68.0
 21
-79.58200100410802
 31
0.0
  0
LINE
  5
4E5
330
1F
100
AcDbEntity
  8
2
  6
CONTINUOUS
370
25
 62
7
100
AcDbLine
 10
67.19676024550327
 20
-78.35449718089936
 30
0.0
 11
68.0
 21
-79.1577369353961
 31
0.0
  0
LINE
  5
4E6
330
1F
100
AcDbEntity
  8
2
  6
CONTINUOUS
370
25
 62
7
100
AcDbLine
 10
67.55031363609655
 20
-78.28378650278071
 30
0.0
 11
68.0
 21
-78.73347286668417
 31
0.0
  0
LINE
  5
4E7
330
1F
100
AcDbEntity
  8
2
  6
CONTINUOUS
370
25
 62
7
100
AcDbLine
 10
67.9038670266898
 20
-78.21307582466204
 30
0.0
 11
68.0
 21
-78.30920879797225
 31
0.0
  0
TEXT
  5
4E8
330
1F
100
AcDbEntity
  8
2
  6
CONTINUOUS
370
25
 62
7
100
AcDbText
 10
69.9625
 20
-77.69384923
 30
0.0
 40
3.5
  1
3.5
 72
     1
 11
73.4625
 21
-77.69384923
 31
0.0
100
AcDbText
  0
LINE
  5
4E9
330
1F
100
AcDbEntity
  8
SK2
  6
CONTINUOUS
370
25
 62
7
100
AcDbLine
 10
-0.0000000000000041
 20
0.0
 30
0.0
 11
0.0000000000000014
 21
90.19384923
 31
0.0
  0
LINE
  5
4EA
330
1F
100
AcDbEntity
  8
SK2
  6
CONTINUOUS
370
25
 62
7
100
AcDbLine
 10
63.0
 20
90.19384923
 30
0.0
 11
63.0
 21
62.5
 31
0.0
  0
LINE
  5
4EB
330
1F
100
AcDbEntity
  8
SK2
  6
CONTINUOUS
370
25
 62
7
100
AcDbLine
 10
0.0
 20
89.19384923
 30
0.0
 11
63.0
 21
89.19384923
 31
0.0
  0
LINE
  5
4EC
330
1F
100
AcDbEntity
  8
SK2
  6
CONTINUOUS
370
25
 62
7
100
AcDbLine
 10
0.0
 20
89.19384923
 30
0.0
 11
5.0
 21
90.19384923
 31
0.0
  0
LINE
  5
4ED
330
1F
100
AcDbEntity
  8
SK2
  6
CONTINUOUS
370
25
 62
7
100
AcDbLine
 10
5.0
 20
90.19384923
 30
0.0
 11
5.0
 21
88.19384923
 31
0.0
  0
LINE
  5
4EE
330
1F
100
AcDbEntity
  8
SK2
  6
CONTINUOUS
370
25
 62
7
100
AcDbLine
 10
5.0
 20
88.19384923
 30
0.0
 11
0.0
 21
89.19384923
 31
0.0
  0
LINE
  5
4EF
330
1F
100
AcDbEntity
  8
SK2
  6
CONTINUOUS
370
25
 62
7
100
AcDbLine
 10
4.678189744791464
 20
88.25821128104171
 30
0.0
 11
5.0
 21
88.58002153625024
 31
0.0
  0
LINE
  5
4F0
330
1F
100
AcDbEntity
  8
SK2
  6
CONTINUOUS
370
25
 62
7
100
AcDbLine
 10
4.324636354198197
 20
88.32892195916035
 30
0.0
 11
5.0
 21
89.00428560496216
 31
0.0
  0
LINE
  5
4F1
330
1F
100
AcDbEntity
  8
SK2
  6
CONTINUOUS
370
25
 62
7
100
AcDbLine
 10
3.971082963604918
 20
88.39963263727901
 30
0.0
 11
5.0
 21
89.4285496736741
 31
0.0
  0
LINE
  5
4F2
330
1F
100
AcDbEntity
  8
SK2
  6
CONTINUOUS
370
25
 62
7
100
AcDbLine
 10
3.617529573011651
 20
88.47034331539767
 30
0.0
 11
5.0
 21
89.85281374238602
 31
0.0
  0
LINE
  5
4F3
330
1F
100
AcDbEntity
  8
SK2
  6
CONTINUOUS
370
25
 62
7
100
AcDbLine
 10
3.263976182418383
 20
88.54105399351631
 30
0.0
 11
4.895964273627577
 21
90.17304208472551
 31
0.0
  0
LINE
  5
4F4
330
1F
100
AcDbEntity
  8
SK2
  6
CONTINUOUS
370
25
 62
7
100
AcDbLine
 10
2.910422791825117
 20
88.61176467163497
 30
0.0
 11
4.365634187737677
 21
90.06697606754753
 31
0.0
  0
LINE
  5
4F5
330
1F
100
AcDbEntity
  8
SK2
  6
CONTINUOUS
370
25
 62
7
100
AcDbLine
 10
2.556869401231837
 20
88.68247534975363
 30
0.0
 11
3.835304101847758
 21
89.96091005036955
 31
0.0
  0
LINE
  5
4F6
330
1F
100
AcDbEntity
  8
SK2
  6
CONTINUOUS
370
25
 62
7
100
AcDbLine
 10
2.20331601063857
 20
88.75318602787229
 30
0.0
 11
3.304974015957857
 21
89.85484403319157
 31
0.0
  0
LINE
  5
4F7
330
1F
100
AcDbEntity
  8
SK2
  6
CONTINUOUS
370
25
 62
7
100
AcDbLine
 10
1.849762620045303
 20
88.82389670599093
 30
0.0
 11
2.774643930067956
 21
89.74877801601359
 31
0.0
  0
LINE
  5
4F8
330
1F
100
AcDbEntity
  8
SK2
  6
CONTINUOUS
370
25
 62
7
100
AcDbLine
 10
1.496209229452035
 20
88.89460738410959
 30
0.0
 11
2.244313844178054
 21
89.64271199883561
 31
0.0
  0
LINE
  5
4F9
330
1F
100
AcDbEntity
  8
SK2
  6
CONTINUOUS
370
25
 62
7
100
AcDbLine
 10
1.142655838858756
 20
88.96531806222825
 30
0.0
 11
1.713983758288136
 21
89.53664598165763
 31
0.0
  0
LINE
  5
4FA
330
1F
100
AcDbEntity
  8
SK2
  6
CONTINUOUS
370
25
 62
7
100
AcDbLine
 10
0.7891024482654891
 20
89.0360287403469
 30
0.0
 11
1.183653672398234
 21
89.43057996447965
 31
0.0
  0
LINE
  5
4FB
330
1F
100
AcDbEntity
  8
SK2
  6
CONTINUOUS
370
25
 62
7
100
AcDbLine
 10
0.4355490576722217
 20
89.10673941846555
 30
0.0
 11
0.6533235865083329
 21
89.32451394730167
 31
0.0
  0
LINE
  5
4FC
330
1F
100
AcDbEntity
  8
SK2
  6
CONTINUOUS
370
25
 62
7
100
AcDbLine
 10
0.0819956670789543
 20
89.17745009658421
 30
0.0
 11
0.1229935006184315
 21
89.21844793012369
 31
0.0
  0
LINE
  5
4FD
330
1F
100
AcDbEntity
  8
SK2
  6
CONTINUOUS
370
25
 62
7
100
AcDbLine
 10
0.2715577235143249
 20
89.24816077470287
 30
0.0
 11
0.4073365852714876
 21
89.1123819129457
 31
0.0
  0
LINE
  5
4FE
330
1F
100
AcDbEntity
  8
SK2
  6
CONTINUOUS
370
25
 62
7
100
AcDbLine
 10
0.625111114107604
 20
89.31887145282153
 30
0.0
 11
0.9376666711614065
 21
89.00631589576771
 31
0.0
  0
LINE
  5
4FF
330
1F
100
AcDbEntity
  8
SK2
  6
CONTINUOUS
370
25
 62
7
100
AcDbLine
 10
0.9786645047008713
 20
89.38958213094017
 30
0.0
 11
1.467996757051307
 21
88.90024987858973
 31
0.0
  0
LINE
  5
500
330
1F
100
AcDbEntity
  8
SK2
  6
CONTINUOUS
370
25
 62
7
100
AcDbLine
 10
1.332217895294139
 20
89.46029280905883
 30
0.0
 11
1.998326842941209
 21
88.79418386141175
 31
0.0
  0
LINE
  5
501
330
1F
100
AcDbEntity
  8
SK2
  6
CONTINUOUS
370
25
 62
7
100
AcDbLine
 10
1.685771285887406
 20
89.53100348717749
 30
0.0
 11
2.528656928831109
 21
88.68811784423377
 31
0.0
  0
LINE
  5
502
330
1F
100
AcDbEntity
  8
SK2
  6
CONTINUOUS
370
25
 62
7
100
AcDbLine
 10
2.039324676480684
 20
89.60171416529613
 30
0.0
 11
3.058987014721028
 21
88.58205182705579
 31
0.0
  0
LINE
  5
503
330
1F
100
AcDbEntity
  8
SK2
  6
CONTINUOUS
370
25
 62
7
100
AcDbLine
 10
2.392878067073952
 20
89.67242484341479
 30
0.0
 11
3.589317100610929
 21
88.47598580987781
 31
0.0
  0
LINE
  5
504
330
1F
100
AcDbEntity
  8
SK2
  6
CONTINUOUS
370
25
 62
7
100
AcDbLine
 10
2.746431457667219
 20
89.74313552153345
 30
0.0
 11
4.11964718650083
 21
88.36991979269983
 31
0.0
  0
LINE
  5
505
330
1F
100
AcDbEntity
  8
SK2
  6
CONTINUOUS
370
25
 62
7
100
AcDbLine
 10
3.099984848260486
 20
89.81384619965209
 30
0.0
 11
4.649977272390731
 21
88.26385377552185
 31
0.0
  0
LINE
  5
506
330
1F
100
AcDbEntity
  8
SK2
  6
CONTINUOUS
370
25
 62
7
100
AcDbLine
 10
3.453538238853765
 20
89.88455687777075
 30
0.0
 11
5.0
 21
88.33809511662452
 31
0.0
  0
LINE
  5
507
330
1F
100
AcDbEntity
  8
SK2
  6
CONTINUOUS
370
25
 62
7
100
AcDbLine
 10
3.807091629447032
 20
89.9552675558894
 30
0.0
 11
5.0
 21
88.76235918533644
 31
0.0
  0
LINE
  5
508
330
1F
100
AcDbEntity
  8
SK2
  6
CONTINUOUS
370
25
 62
7
100
AcDbLine
 10
4.1606450200403
 20
90.02597823400806
 30
0.0
 11
5.0
 21
89.18662325404836
 31
0.0
  0
LINE
  5
509
330
1F
100
AcDbEntity
  8
SK2
  6
CONTINUOUS
370
25
 62
7
100
AcDbLine
 10
4.514198410633567
 20
90.09668891212671
 30
0.0
 11
5.0
 21
89.61088732276028
 31
0.0
  0
LINE
  5
50A
330
1F
100
AcDbEntity
  8
SK2
  6
CONTINUOUS
370
25
 62
7
100
AcDbLine
 10
4.867751801226846
 20
90.16739959024537
 30
0.0
 11
5.0
 21
90.03515139147221
 31
0.0
  0
LINE
  5
50B
330
1F
100
AcDbEntity
  8
SK2
  6
CONTINUOUS
370
25
 62
7
100
AcDbLine
 10
63.0
 20
89.19384923
 30
0.0
 11
58.0
 21
88.19384923
 31
0.0
  0
LINE
  5
50C
330
1F
100
AcDbEntity
  8
SK2
  6
CONTINUOUS
370
25
 62
7
100
AcDbLine
 10
58.0
 20
88.19384923
 30
0.0
 11
58.0
 21
90.19384923
 31
0.0
  0
LINE
  5
50D
330
1F
100
AcDbEntity
  8
SK2
  6
CONTINUOUS
370
25
 62
7
100
AcDbLine
 10
58.0
 20
90.19384923
 30
0.0
 11
63.0
 21
89.19384923
 31
0.0
  0
LINE
  5
50E
330
1F
100
AcDbEntity
  8
SK2
  6
CONTINUOUS
370
25
 62
7
100
AcDbLine
 10
62.86184621232463
 20
89.16621847246492
 30
0.0
 11
62.9078974748831
 21
89.21226973502338
 31
0.0
  0
LINE
  5
50F
330
1F
100
AcDbEntity
  8
SK2
  6
CONTINUOUS
370
25
 62
7
100
AcDbLine
 10
62.33151612643473
 20
89.06015245528694
 30
0.0
 11
62.55434408428982
 21
89.28298041314203
 31
0.0
  0
LINE
  5
510
330
1F
100
AcDbEntity
  8
SK2
  6
CONTINUOUS
370
25
 62
7
100
AcDbLine
 10
61.80118604054482
 20
88.95408643810896
 30
0.0
 11
62.20079069369656
 21
89.3536910912607
 31
0.0
  0
LINE
  5
511
330
1F
100
AcDbEntity
  8
SK2
  6
CONTINUOUS
370
25
 62
7
100
AcDbLine
 10
61.27085595465491
 20
88.84802042093096
 30
0.0
 11
61.84723730310329
 21
89.42440176937936
 31
0.0
  0
LINE
  5
512
330
1F
100
AcDbEntity
  8
SK2
  6
CONTINUOUS
370
25
 62
7
100
AcDbLine
 10
60.740525868765
 20
88.741954403753
 30
0.0
 11
61.49368391251001
 21
89.495112447498
 31
0.0
  0
LINE
  5
513
330
1F
100
AcDbEntity
  8
SK2
  6
CONTINUOUS
370
25
 62
7
100
AcDbLine
 10
60.21019578287508
 20
88.635888386575
 30
0.0
 11
61.14013052191675
 21
89.56582312561665
 31
0.0
  0
LINE
  5
514
330
1F
100
AcDbEntity
  8
SK2
  6
CONTINUOUS
370
25
 62
7
100
AcDbLine
 10
59.67986569698519
 20
88.52982236939704
 30
0.0
 11
60.78657713132348
 21
89.6365338037353
 31
0.0
  0
LINE
  5
515
330
1F
100
AcDbEntity
  8
SK2
  6
CONTINUOUS
370
25
 62
7
100
AcDbLine
 10
59.14953561109527
 20
88.42375635221904
 30
0.0
 11
60.43302374073021
 21
89.70724448185396
 31
0.0
  0
LINE
  5
516
330
1F
100
AcDbEntity
  8
SK2
  6
CONTINUOUS
370
25
 62
7
100
AcDbLine
 10
58.61920552520537
 20
88.31769033504106
 30
0.0
 11
60.07947035013693
 21
89.7779551599726
 31
0.0
  0
LINE
  5
517
330
1F
100
AcDbEntity
  8
SK2
  6
CONTINUOUS
370
25
 62
7
100
AcDbLine
 10
58.08887543931544
 20
88.21162431786308
 30
0.0
 11
59.72591695954367
 21
89.84866583809128
 31
0.0
  0
LINE
  5
518
330
1F
100
AcDbEntity
  8
SK2
  6
CONTINUOUS
370
25
 62
7
100
AcDbLine
 10
58.0
 20
88.54701294725955
 30
0.0
 11
59.37236356895038
 21
89.91937651620992
 31
0.0
  0
LINE
  5
519
330
1F
100
AcDbEntity
  8
SK2
  6
CONTINUOUS
370
25
 62
7
100
AcDbLine
 10
58.0
 20
88.97127701597148
 30
0.0
 11
59.01881017835711
 21
89.99008719432858
 31
0.0
  0
LINE
  5
51A
330
1F
100
AcDbEntity
  8
SK2
  6
CONTINUOUS
370
25
 62
7
100
AcDbLine
 10
58.0
 20
89.3955410846834
 30
0.0
 11
58.66525678776384
 21
90.06079787244724
 31
0.0
  0
LINE
  5
51B
330
1F
100
AcDbEntity
  8
SK2
  6
CONTINUOUS
370
25
 62
7
100
AcDbLine
 10
58.0
 20
89.81980515339532
 30
0.0
 11
58.31170339717058
 21
90.1315085505659
 31
0.0
  0
LINE
  5
51C
330
1F
100
AcDbEntity
  8
SK2
  6
CONTINUOUS
370
25
 62
7
100
AcDbLine
 10
58.0
 20
88.37110370561547
 30
0.0
 11
58.1477120630129
 21
88.22339164260256
 31
0.0
  0
LINE
  5
51D
330
1F
100
AcDbEntity
  8
SK2
  6
CONTINUOUS
370
25
 62
7
100
AcDbLine
 10
58.0
 20
88.79536777432739
 30
0.0
 11
58.50126545360617
 21
88.29410232072122
 31
0.0
  0
LINE
  5
51E
330
1F
100
AcDbEntity
  8
SK2
  6
CONTINUOUS
370
25
 62
7
100
AcDbLine
 10
58.0
 20
89.21963184303934
 30
0.0
 11
58.85481884419946
 21
88.36481299883988
 31
0.0
  0
LINE
  5
51F
330
1F
100
AcDbEntity
  8
SK2
  6
CONTINUOUS
370
25
 62
7
100
AcDbLine
 10
58.0
 20
89.64389591175126
 30
0.0
 11
59.20837223479272
 21
88.43552367695852
 31
0.0
  0
LINE
  5
520
330
1F
100
AcDbEntity
  8
SK2
  6
CONTINUOUS
370
25
 62
7
100
AcDbLine
 10
58.0
 20
90.06815998046318
 30
0.0
 11
59.56192562538599
 21
88.50623435507718
 31
0.0
  0
LINE
  5
521
330
1F
100
AcDbEntity
  8
SK2
  6
CONTINUOUS
370
25
 62
7
100
AcDbLine
 10
58.37321852396884
 20
90.11920552520624
 30
0.0
 11
59.91547901597924
 21
88.57694503319584
 31
0.0
  0
LINE
  5
522
330
1F
100
AcDbEntity
  8
SK2
  6
CONTINUOUS
370
25
 62
7
100
AcDbLine
 10
58.90354860985875
 20
90.01313950802826
 30
0.0
 11
60.26903240657251
 21
88.64765571131448
 31
0.0
  0
LINE
  5
523
330
1F
100
AcDbEntity
  8
SK2
  6
CONTINUOUS
370
25
 62
7
100
AcDbLine
 10
59.43387869574867
 20
89.90707349085028
 30
0.0
 11
60.62258579716579
 21
88.71836638943316
 31
0.0
  0
LINE
  5
524
330
1F
100
AcDbEntity
  8
SK2
  6
CONTINUOUS
370
25
 62
7
100
AcDbLine
 10
59.96420878163857
 20
89.8010074736723
 30
0.0
 11
60.97613918775906
 21
88.7890770675518
 31
0.0
  0
LINE
  5
525
330
1F
100
AcDbEntity
  8
SK2
  6
CONTINUOUS
370
25
 62
7
100
AcDbLine
 10
60.49453886752849
 20
89.69494145649432
 30
0.0
 11
61.32969257835234
 21
88.85978774567045
 31
0.0
  0
LINE
  5
526
330
1F
100
AcDbEntity
  8
SK2
  6
CONTINUOUS
370
25
 62
7
100
AcDbLine
 10
61.02486895341839
 20
89.58887543931633
 30
0.0
 11
61.68324596894561
 21
88.93049842378912
 31
0.0
  0
LINE
  5
527
330
1F
100
AcDbEntity
  8
SK2
  6
CONTINUOUS
370
25
 62
7
100
AcDbLine
 10
61.55519903930831
 20
89.48280942213835
 30
0.0
 11
62.03679935953889
 21
89.00120910190776
 31
0.0
  0
LINE
  5
528
330
1F
100
AcDbEntity
  8
SK2
  6
CONTINUOUS
370
25
 62
7
100
AcDbLine
 10
62.08552912519821
 20
89.37674340496037
 30
0.0
 11
62.39035275013215
 21
89.07191978002642
 31
0.0
  0
LINE
  5
529
330
1F
100
AcDbEntity
  8
SK2
  6
CONTINUOUS
370
25
 62
7
100
AcDbLine
 10
62.61585921108809
 20
89.2706773877824
 30
0.0
 11
62.74390614072541
 21
89.14263045814506
 31
0.0
  0
TEXT
  5
52A
330
1F
100
AcDbEntity
  8
SK2
  6
CONTINUOUS
370
25
 62
7
100
AcDbText
 10
28.58333333333333
 20
90.69384923
 30
0.0
 40
3.5
  1
63
 72
     1
 11
31.5
 21
90.69384923
 31
0.0
100
AcDbText
  0
LINE
  5
52B
330
1F
100
AcDbEntity
  8
2
  6
CONTINUOUS
370
25
 62
7
100
AcDbLine
 10
26.916
 20
-47.94014085
 30
0.0
 11
26.916
 21
-90.19384923
 31
0.0
  0
LINE
  5
52C
330
1F
100
AcDbEntity
  8
2
  6
CONTINUOUS
370
25
 62
7
100
AcDbLine
 10
60.916
 20
-90.19384923
 30
0.0
 11
60.916
 21
-64.584
 31
0.0
  0
LINE
  5
52D
330
1F
100
AcDbEntity
  8
2
  6
CONTINUOUS
370
25
 62
7
100
AcDbLine
 10
26.916
 20
-89.19384923
 30
0.0
 11
60.916
 21
-89.19384923
 31
0.0
  0
LINE
  5
52E
330
1F
100
AcDbEntity
  8
2
  6
CONTINUOUS
370
25
 62
7
100
AcDbLine
 10
26.916
 20
-89.19384923
 30
0.0
 11
31.916
 21
-88.19384923
 31
0.0
  0
LINE
  5
52F
330
1F
100
AcDbEntity
  8
2
  6
CONTINUOUS
370
25
 62
7
100
AcDbLine
 10
31.916
 20
-88.19384923
 30
0.0
 11
31.916
 21
-90.19384923
 31
0.0
  0
LINE
  5
530
330
1F
100
AcDbEntity
  8
2
  6
CONTINUOUS
370
25
 62
7
100
AcDbLine
 10
31.916
 20
-90.19384923
 30
0.0
 11
26.916
 21
-89.19384923
 31
0.0
  0
LINE
  5
531
330
1F
100
AcDbEntity
  8
2
  6
CONTINUOUS
370
25
 62
7
100
AcDbLine
 10
31.58441302233768
 20
-90.12753183446753
 30
0.0
 11
31.916
 21
-89.79594485680522
 31
0.0
  0
LINE
  5
532
330
1F
100
AcDbEntity
  8
2
  6
CONTINUOUS
370
25
 62
7
100
AcDbLine
 10
31.2308596317444
 20
-90.05682115634887
 30
0.0
 11
31.916
 21
-89.37168078809327
 31
0.0
  0
LINE
  5
533
330
1F
100
AcDbEntity
  8
2
  6
CONTINUOUS
370
25
 62
7
100
AcDbLine
 10
30.87730624115114
 20
-89.98611047823022
 30
0.0
 11
31.916
 21
-88.94741671938135
 31
0.0
  0
LINE
  5
534
330
1F
100
AcDbEntity
  8
2
  6
CONTINUOUS
370
25
 62
7
100
AcDbLine
 10
30.52375285055786
 20
-89.91539980011157
 30
0.0
 11
31.916
 21
-88.52315265066943
 31
0.0
  0
LINE
  5
535
330
1F
100
AcDbEntity
  8
2
  6
CONTINUOUS
370
25
 62
7
100
AcDbLine
 10
30.17019945996459
 20
-89.84468912199291
 30
0.0
 11
31.79729918994687
 21
-88.21758939201062
 31
0.0
  0
LINE
  5
536
330
1F
100
AcDbEntity
  8
2
  6
CONTINUOUS
370
25
 62
7
100
AcDbLine
 10
29.81664606937132
 20
-89.77397844387426
 30
0.0
 11
31.26696910405697
 21
-88.3236554091886
 31
0.0
  0
LINE
  5
537
330
1F
100
AcDbEntity
  8
2
  6
CONTINUOUS
370
25
 62
7
100
AcDbLine
 10
29.46309267877805
 20
-89.70326776575561
 30
0.0
 11
30.73663901816707
 21
-88.42972142636658
 31
0.0
  0
LINE
  5
538
330
1F
100
AcDbEntity
  8
2
  6
CONTINUOUS
370
25
 62
7
100
AcDbLine
 10
29.10953928818478
 20
-89.63255708763695
 30
0.0
 11
30.20630893227715
 21
-88.53578744354456
 31
0.0
  0
LINE
  5
539
330
1F
100
AcDbEntity
  8
2
  6
CONTINUOUS
370
25
 62
7
100
AcDbLine
 10
28.75598589759151
 20
-89.5618464095183
 30
0.0
 11
29.67597884638725
 21
-88.64185346072256
 31
0.0
  0
LINE
  5
53A
330
1F
100
AcDbEntity
  8
2
  6
CONTINUOUS
370
25
 62
7
100
AcDbLine
 10
28.40243250699823
 20
-89.49113573139964
 30
0.0
 11
29.14564876049733
 21
-88.74791947790054
 31
0.0
  0
LINE
  5
53B
330
1F
100
AcDbEntity
  8
2
  6
CONTINUOUS
370
25
 62
7
100
AcDbLine
 10
28.04887911640497
 20
-89.42042505328098
 30
0.0
 11
28.61531867460744
 21
-88.85398549507852
 31
0.0
  0
LINE
  5
53C
330
1F
100
AcDbEntity
  8
2
  6
CONTINUOUS
370
25
 62
7
100
AcDbLine
 10
27.6953257258117
 20
-89.34971437516234
 30
0.0
 11
28.08498858871754
 21
-88.9600515122565
 31
0.0
  0
LINE
  5
53D
330
1F
100
AcDbEntity
  8
2
  6
CONTINUOUS
370
25
 62
7
100
AcDbLine
 10
27.34177233521843
 20
-89.27900369704368
 30
0.0
 11
27.55465850282764
 21
-89.06611752943448
 31
0.0
  0
LINE
  5
53E
330
1F
100
AcDbEntity
  8
2
  6
CONTINUOUS
370
25
 62
7
100
AcDbLine
 10
26.98821894462515
 20
-89.20829301892502
 30
0.0
 11
27.02432841693772
 21
-89.17218354661246
 31
0.0
  0
LINE
  5
53F
330
1F
100
AcDbEntity
  8
2
  6
CONTINUOUS
370
25
 62
7
100
AcDbLine
 10
27.00410579971714
 20
-89.17622807005657
 30
0.0
 11
27.0481586995757
 21
-89.22028096991514
 31
0.0
  0
LINE
  5
540
330
1F
100
AcDbEntity
  8
2
  6
CONTINUOUS
370
25
 62
7
100
AcDbLine
 10
27.35765919031041
 20
-89.10551739193792
 30
0.0
 11
27.57848878546562
 21
-89.32634698709312
 31
0.0
  0
LINE
  5
541
330
1F
100
AcDbEntity
  8
2
  6
CONTINUOUS
370
25
 62
7
100
AcDbLine
 10
27.71121258090368
 20
-89.03480671381926
 30
0.0
 11
28.10881887135552
 21
-89.4324130042711
 31
0.0
  0
LINE
  5
542
330
1F
100
AcDbEntity
  8
2
  6
CONTINUOUS
370
25
 62
7
100
AcDbLine
 10
28.06476597149695
 20
-88.9640960357006
 30
0.0
 11
28.63914895724543
 21
-89.53847902144908
 31
0.0
  0
LINE
  5
543
330
1F
100
AcDbEntity
  8
2
  6
CONTINUOUS
370
25
 62
7
100
AcDbLine
 10
28.41831936209023
 20
-88.89338535758196
 30
0.0
 11
29.16947904313534
 21
-89.64454503862706
 31
0.0
  0
LINE
  5
544
330
1F
100
AcDbEntity
  8
2
  6
CONTINUOUS
370
25
 62
7
100
AcDbLine
 10
28.7718727526835
 20
-88.8226746794633
 30
0.0
 11
29.69980912902525
 21
-89.75061105580505
 31
0.0
  0
LINE
  5
545
330
1F
100
AcDbEntity
  8
2
  6
CONTINUOUS
370
25
 62
7
100
AcDbLine
 10
29.12542614327677
 20
-88.75196400134465
 30
0.0
 11
30.23013921491516
 21
-89.85667707298303
 31
0.0
  0
LINE
  5
546
330
1F
100
AcDbEntity
  8
2
  6
CONTINUOUS
370
25
 62
7
100
AcDbLine
 10
29.47897953387004
 20
-88.68125332322599
 30
0.0
 11
30.76046930080507
 21
-89.96274309016101
 31
0.0
  0
LINE
  5
547
330
1F
100
AcDbEntity
  8
2
  6
CONTINUOUS
370
25
 62
7
100
AcDbLine
 10
29.83253292446331
 20
-88.61054264510733
 30
0.0
 11
31.29079938669498
 21
-90.06880910733899
 31
0.0
  0
LINE
  5
548
330
1F
100
AcDbEntity
  8
2
  6
CONTINUOUS
370
25
 62
7
100
AcDbLine
 10
30.18608631505658
 20
-88.53983196698869
 30
0.0
 11
31.82112947258489
 21
-90.17487512451697
 31
0.0
  0
LINE
  5
549
330
1F
100
AcDbEntity
  8
2
  6
CONTINUOUS
370
25
 62
7
100
AcDbLine
 10
30.53963970564986
 20
-88.46912128887003
 30
0.0
 11
31.916
 21
-89.84548158322016
 31
0.0
  0
LINE
  5
54A
330
1F
100
AcDbEntity
  8
2
  6
CONTINUOUS
370
25
 62
7
100
AcDbLine
 10
30.89319309624313
 20
-88.39841061075137
 30
0.0
 11
31.916
 21
-89.42121751450823
 31
0.0
  0
LINE
  5
54B
330
1F
100
AcDbEntity
  8
2
  6
CONTINUOUS
370
25
 62
7
100
AcDbLine
 10
31.2467464868364
 20
-88.32769993263273
 30
0.0
 11
31.916
 21
-88.99695344579631
 31
0.0
  0
LINE
  5
54C
330
1F
100
AcDbEntity
  8
2
  6
CONTINUOUS
370
25
 62
7
100
AcDbLine
 10
31.60029987742967
 20
-88.25698925451407
 30
0.0
 11
31.916
 21
-88.57268937708439
 31
0.0
  0
LINE
  5
54D
330
1F
100
AcDbEntity
  8
2
  6
CONTINUOUS
370
25
 62
7
100
AcDbLine
 10
60.916
 20
-89.19384923
 30
0.0
 11
55.916
 21
-90.19384923
 31
0.0
  0
LINE
  5
54E
330
1F
100
AcDbEntity
  8
2
  6
CONTINUOUS
370
25
 62
7
100
AcDbLine
 10
55.916
 20
-90.19384923
 30
0.0
 11
55.916
 21
-88.19384923
 31
0.0
  0
LINE
  5
54F
330
1F
100
AcDbEntity
  8
2
  6
CONTINUOUS
370
25
 62
7
100
AcDbLine
 10
55.916
 20
-88.19384923
 30
0.0
 11
60.916
 21
-89.19384923
 31
0.0
  0
LINE
  5
550
330
1F
100
AcDbEntity
  8
2
  6
CONTINUOUS
370
25
 62
7
100
AcDbLine
 10
60.79551352121294
 20
-89.21794652575741
 30
0.0
 11
60.83567568080863
 21
-89.17778436616172
 31
0.0
  0
LINE
  5
551
330
1F
100
AcDbEntity
  8
2
  6
CONTINUOUS
370
25
 62
7
100
AcDbLine
 10
60.26518343532303
 20
-89.32401254293538
 30
0.0
 11
60.48212229021534
 21
-89.10707368804307
 31
0.0
  0
LINE
  5
552
330
1F
100
AcDbEntity
  8
2
  6
CONTINUOUS
370
25
 62
7
100
AcDbLine
 10
59.73485334943312
 20
-89.43007856011337
 30
0.0
 11
60.12856889962208
 21
-89.03636300992441
 31
0.0
  0
LINE
  5
553
330
1F
100
AcDbEntity
  8
2
  6
CONTINUOUS
370
25
 62
7
100
AcDbLine
 10
59.20452326354319
 20
-89.53614457729135
 30
0.0
 11
59.77501550902878
 21
-88.96565233180576
 31
0.0
  0
LINE
  5
554
330
1F
100
AcDbEntity
  8
2
  6
CONTINUOUS
370
25
 62
7
100
AcDbLine
 10
58.67419317765328
 20
-89.64221059446933
 30
0.0
 11
59.42146211843551
 21
-88.89494165368711
 31
0.0
  0
LINE
  5
555
330
1F
100
AcDbEntity
  8
2
  6
CONTINUOUS
370
25
 62
7
100
AcDbLine
 10
58.14386309176338
 20
-89.74827661164733
 30
0.0
 11
59.06790872784225
 21
-88.82423097556844
 31
0.0
  0
LINE
  5
556
330
1F
100
AcDbEntity
  8
2
  6
CONTINUOUS
370
25
 62
7
100
AcDbLine
 10
57.61353300587347
 20
-89.8543426288253
 30
0.0
 11
58.71435533724898
 21
-88.7535202974498
 31
0.0
  0
LINE
  5
557
330
1F
100
AcDbEntity
  8
2
  6
CONTINUOUS
370
25
 62
7
100
AcDbLine
 10
57.08320291998353
 20
-89.96040864600329
 30
0.0
 11
58.36080194665568
 21
-88.68280961933115
 31
0.0
  0
LINE
  5
558
330
1F
100
AcDbEntity
  8
2
  6
CONTINUOUS
370
25
 62
7
100
AcDbLine
 10
56.55287283409363
 20
-90.06647466318127
 30
0.0
 11
58.00724855606242
 21
-88.61209894121248
 31
0.0
  0
LINE
  5
559
330
1F
100
AcDbEntity
  8
2
  6
CONTINUOUS
370
25
 62
7
100
AcDbLine
 10
56.02254274820373
 20
-90.17254068035925
 30
0.0
 11
57.65369516546915
 21
-88.54138826309384
 31
0.0
  0
LINE
  5
55A
330
1F
100
AcDbEntity
  8
2
  6
CONTINUOUS
370
25
 62
7
100
AcDbLine
 10
55.916
 20
-89.85481935985106
 30
0.0
 11
57.30014177487588
 21
-88.47067758497518
 31
0.0
  0
LINE
  5
55B
330
1F
100
AcDbEntity
  8
2
  6
CONTINUOUS
370
25
 62
7
100
AcDbLine
 10
55.916
 20
-89.43055529113914
 30
0.0
 11
56.94658838428261
 21
-88.39996690685652
 31
0.0
  0
LINE
  5
55C
330
1F
100
AcDbEntity
  8
2
  6
CONTINUOUS
370
25
 62
7
100
AcDbLine
 10
55.916
 20
-89.00629122242722
 30
0.0
 11
56.59303499368934
 21
-88.32925622873788
 31
0.0
  0
LINE
  5
55D
330
1F
100
AcDbEntity
  8
2
  6
CONTINUOUS
370
25
 62
7
100
AcDbLine
 10
55.916
 20
-88.58202715371527
 30
0.0
 11
56.23948160309605
 21
-88.2585455506192
 31
0.0
  0
LINE
  5
55E
330
1F
100
AcDbEntity
  8
2
  6
CONTINUOUS
370
25
 62
7
100
AcDbLine
 10
55.916
 20
-89.78660708017394
 30
0.0
 11
56.25536845818839
 21
-90.12597553836233
 31
0.0
  0
LINE
  5
55F
330
1F
100
AcDbEntity
  8
2
  6
CONTINUOUS
370
25
 62
7
100
AcDbLine
 10
55.916
 20
-89.362343011462
 30
0.0
 11
56.60892184878165
 21
-90.05526486024365
 31
0.0
  0
LINE
  5
560
330
1F
100
AcDbEntity
  8
2
  6
CONTINUOUS
370
25
 62
7
100
AcDbLine
 10
55.916
 20
-88.93807894275008
 30
0.0
 11
56.96247523937493
 21
-89.98455418212501
 31
0.0
  0
LINE
  5
561
330
1F
100
AcDbEntity
  8
2
  6
CONTINUOUS
370
25
 62
7
100
AcDbLine
 10
55.916
 20
-88.51381487403816
 30
0.0
 11
57.31602862996821
 21
-89.91384350400637
 31
0.0
  0
LINE
  5
562
330
1F
100
AcDbEntity
  8
2
  6
CONTINUOUS
370
25
 62
7
100
AcDbLine
 10
56.04637303084221
 20
-88.21992383616845
 30
0.0
 11
57.66958202056148
 21
-89.84313282588771
 31
0.0
  0
LINE
  5
563
330
1F
100
AcDbEntity
  8
2
  6
CONTINUOUS
370
25
 62
7
100
AcDbLine
 10
56.57670311673212
 20
-88.32598985334641
 30
0.0
 11
58.02313541115474
 21
-89.77242214776905
 31
0.0
  0
LINE
  5
564
330
1F
100
AcDbEntity
  8
2
  6
CONTINUOUS
370
25
 62
7
100
AcDbLine
 10
57.10703320262203
 20
-88.43205587052441
 30
0.0
 11
58.37668880174802
 21
-89.7017114696504
 31
0.0
  0
LINE
  5
565
330
1F
100
AcDbEntity
  8
2
  6
CONTINUOUS
370
25
 62
7
100
AcDbLine
 10
57.63736328851193
 20
-88.53812188770237
 30
0.0
 11
58.7302421923413
 21
-89.63100079153175
 31
0.0
  0
LINE
  5
566
330
1F
100
AcDbEntity
  8
2
  6
CONTINUOUS
370
25
 62
7
100
AcDbLine
 10
58.16769337440185
 20
-88.64418790488037
 30
0.0
 11
59.08379558293457
 21
-89.56029011341309
 31
0.0
  0
LINE
  5
567
330
1F
100
AcDbEntity
  8
2
  6
CONTINUOUS
370
25
 62
7
100
AcDbLine
 10
58.69802346029176
 20
-88.75025392205835
 30
0.0
 11
59.43734897352783
 21
-89.48957943529442
 31
0.0
  0
LINE
  5
568
330
1F
100
AcDbEntity
  8
2
  6
CONTINUOUS
370
25
 62
7
100
AcDbLine
 10
59.22835354618167
 20
-88.85631993923633
 30
0.0
 11
59.79090236412112
 21
-89.41886875717577
 31
0.0
  0
LINE
  5
569
330
1F
100
AcDbEntity
  8
2
  6
CONTINUOUS
370
25
 62
7
100
AcDbLine
 10
59.75868363207157
 20
-88.96238595641431
 30
0.0
 11
60.14445575471439
 21
-89.34815807905713
 31
0.0
  0
LINE
  5
56A
330
1F
100
AcDbEntity
  8
2
  6
CONTINUOUS
370
25
 62
7
100
AcDbLine
 10
60.28901371796149
 20
-89.06845197359229
 30
0.0
 11
60.49800914530766
 21
-89.27744740093847
 31
0.0
  0
LINE
  5
56B
330
1F
100
AcDbEntity
  8
2
  6
CONTINUOUS
370
25
 62
7
100
AcDbLine
 10
60.81934380385139
 20
-89.17451799077028
 30
0.0
 11
60.85156253590093
 21
-89.20673672281981
 31
0.0
  0
TEXT
  5
56C
330
1F
100
AcDbEntity
  8
2
  6
CONTINUOUS
370
25
 62
7
100
AcDbText
 10
40.99933333333333
 20
-87.69384923
 30
0.0
 40
3.5
  1
34
 72
     1
 11
43.916
 21
-87.69384923
 31
0.0
100
AcDbText
  0
LINE
  5
56D
330
1F
100
AcDbEntity
  8
2
  6
CONTINUOUS
370
25
 62
7
100
AcDbLine
 10
0.0
 20
-20.0
 30
0.0
 11
-13.0
 21
-20.0
 31
0.0
  0
LINE
  5
56E
330
1F
100
AcDbEntity
  8
2
  6
CONTINUOUS
370
25
 62
7
100
AcDbLine
 10
-13.0
 20
20.0
 30
0.0
 11
0.0000000000000018
 21
20.0
 31
0.0
  0
LINE
  5
56F
330
1F
100
AcDbEntity
  8
2
  6
CONTINUOUS
370
25
 62
7
100
AcDbLine
 10
-12.0
 20
-20.0
 30
0.0
 11
-12.0
 21
20.0
 31
0.0
  0
LINE
  5
570
330
1F
100
AcDbEntity
  8
2
  6
CONTINUOUS
370
25
 62
7
100
AcDbLine
 10
-12.0
 20
-20.0
 30
0.0
 11
-13.0
 21
-15.0
 31
0.0
  0
LINE
  5
571
330
1F
100
AcDbEntity
  8
2
  6
CONTINUOUS
370
25
 62
7
100
AcDbLine
 10
-13.0
 20
-15.0
 30
0.0
 11
-11.0
 21
-15.0
 31
0.0
  0
LINE
  5
572
330
1F
100
AcDbEntity
  8
2
  6
CONTINUOUS
370
25
 62
7
100
AcDbLine
 10
-11.0
 20
-15.0
 30
0.0
 11
-12.0
 21
-20.0
 31
0.0
  0
LINE
  5
573
330
1F
100
AcDbEntity
  8
2
  6
CONTINUOUS
370
25
 62
7
100
AcDbLine
 10
-12.01296256575557
 20
-19.93518717122215
 30
0.0
 11
-11.98055615136665
 21
-19.90278075683322
 31
0.0
  0
LINE
  5
574
330
1F
100
AcDbEntity
  8
2
  6
CONTINUOUS
370
25
 62
7
100
AcDbLine
 10
-12.08367324387422
 20
-19.58163378062888
 30
0.0
 11
-11.87449013418866
 21
-19.37245067094332
 31
0.0
  0
LINE
  5
575
330
1F
100
AcDbEntity
  8
2
  6
CONTINUOUS
370
25
 62
7
100
AcDbLine
 10
-12.15438392199288
 20
-19.2280803900356
 30
0.0
 11
-11.76842411701068
 21
-18.84212058505341
 31
0.0
  0
LINE
  5
576
330
1F
100
AcDbEntity
  8
2
  6
CONTINUOUS
370
25
 62
7
100
AcDbLine
 10
-12.22509460011153
 20
-18.87452699944233
 30
0.0
 11
-11.6623580998327
 21
-18.3117904991635
 31
0.0
  0
LINE
  5
577
330
1F
100
AcDbEntity
  8
2
  6
CONTINUOUS
370
25
 62
7
100
AcDbLine
 10
-12.29580527823019
 20
-18.52097360884905
 30
0.0
 11
-11.55629208265472
 21
-17.78146041327359
 31
0.0
  0
LINE
  5
578
330
1F
100
AcDbEntity
  8
2
  6
CONTINUOUS
370
25
 62
7
100
AcDbLine
 10
-12.36651595634884
 20
-18.16742021825578
 30
0.0
 11
-11.45022606547674
 21
-17.25113032738368
 31
0.0
  0
LINE
  5
579
330
1F
100
AcDbEntity
  8
2
  6
CONTINUOUS
370
25
 62
7
100
AcDbLine
 10
-12.4372266344675
 20
-17.81386682766251
 30
0.0
 11
-11.34416004829875
 21
-16.72080024149377
 31
0.0
  0
LINE
  5
57A
330
1F
100
AcDbEntity
  8
2
  6
CONTINUOUS
370
25
 62
7
100
AcDbLine
 10
-12.50793731258615
 20
-17.46031343706924
 30
0.0
 11
-11.23809403112077
 21
-16.19047015560386
 31
0.0
  0
LINE
  5
57B
330
1F
100
AcDbEntity
  8
2
  6
CONTINUOUS
370
25
 62
7
100
AcDbLine
 10
-12.57864799070481
 20
-17.10676004647596
 30
0.0
 11
-11.13202801394279
 21
-15.66014006971395
 31
0.0
  0
LINE
  5
57C
330
1F
100
AcDbEntity
  8
2
  6
CONTINUOUS
370
25
 62
7
100
AcDbLine
 10
-12.64935866882346
 20
-16.75320665588269
 30
0.0
 11
-11.02596199676481
 21
-15.12980998382404
 31
0.0
  0
LINE
  5
57D
330
1F
100
AcDbEntity
  8
2
  6
CONTINUOUS
370
25
 62
7
100
AcDbLine
 10
-12.72006934694212
 20
-16.39965326528942
 30
0.0
 11
-11.3204160816527
 21
-15.0
 31
0.0
  0
LINE
  5
57E
330
1F
100
AcDbEntity
  8
2
  6
CONTINUOUS
370
25
 62
7
100
AcDbLine
 10
-12.79078002506077
 20
-16.04609987469614
 30
0.0
 11
-11.74468015036462
 21
-15.0
 31
0.0
  0
LINE
  5
57F
330
1F
100
AcDbEntity
  8
2
  6
CONTINUOUS
370
25
 62
7
100
AcDbLine
 10
-12.86149070317943
 20
-15.69254648410287
 30
0.0
 11
-12.16894421907655
 21
-15.0
 31
0.0
  0
LINE
  5
580
330
1F
100
AcDbEntity
  8
2
  6
CONTINUOUS
370
25
 62
7
100
AcDbLine
 10
-12.93220138129808
 20
-15.3389930935096
 30
0.0
 11
-12.59320828778848
 21
-15.0
 31
0.0
  0
LINE
  5
581
330
1F
100
AcDbEntity
  8
2
  6
CONTINUOUS
370
25
 62
7
100
AcDbLine
 10
-12.06520682777834
 20
-19.67396586110829
 30
0.0
 11
-11.9565287814811
 21
-19.78264390740552
 31
0.0
  0
LINE
  5
582
330
1F
100
AcDbEntity
  8
2
  6
CONTINUOUS
370
25
 62
7
100
AcDbLine
 10
-12.17127284495632
 20
-19.14363577521838
 30
0.0
 11
-11.88581810336245
 21
-19.42909051681225
 31
0.0
  0
LINE
  5
583
330
1F
100
AcDbEntity
  8
2
  6
CONTINUOUS
370
25
 62
7
100
AcDbLine
 10
-12.27733886213431
 20
-18.61330568932846
 30
0.0
 11
-11.8151074252438
 21
-19.07553712621898
 31
0.0
  0
LINE
  5
584
330
1F
100
AcDbEntity
  8
2
  6
CONTINUOUS
370
25
 62
7
100
AcDbLine
 10
-12.38340487931229
 20
-18.08297560343856
 30
0.0
 11
-11.74439674712514
 21
-18.72198373562571
 31
0.0
  0
LINE
  5
585
330
1F
100
AcDbEntity
  8
2
  6
CONTINUOUS
370
25
 62
7
100
AcDbLine
 10
-12.48947089649027
 20
-17.55264551754865
 30
0.0
 11
-11.67368606900649
 21
-18.36843034503243
 31
0.0
  0
LINE
  5
586
330
1F
100
AcDbEntity
  8
2
  6
CONTINUOUS
370
25
 62
7
100
AcDbLine
 10
-12.59553691366825
 20
-17.02231543165874
 30
0.0
 11
-11.60297539088783
 21
-18.01487695443916
 31
0.0
  0
LINE
  5
587
330
1F
100
AcDbEntity
  8
2
  6
CONTINUOUS
370
25
 62
7
100
AcDbLine
 10
-12.70160293084624
 20
-16.49198534576882
 30
0.0
 11
-11.53226471276918
 21
-17.66132356384588
 31
0.0
  0
LINE
  5
588
330
1F
100
AcDbEntity
  8
2
  6
CONTINUOUS
370
25
 62
7
100
AcDbLine
 10
-12.80766894802422
 20
-15.96165525987892
 30
0.0
 11
-11.46155403465052
 21
-17.30777017325261
 31
0.0
  0
LINE
  5
589
330
1F
100
AcDbEntity
  8
2
  6
CONTINUOUS
370
25
 62
7
100
AcDbLine
 10
-12.9137349652022
 20
-15.43132517398901
 30
0.0
 11
-11.39084335653187
 21
-16.95421678265934
 31
0.0
  0
LINE
  5
58A
330
1F
100
AcDbEntity
  8
2
  6
CONTINUOUS
370
25
 62
7
100
AcDbLine
 10
-12.92079607047928
 20
-15.0
 30
0.0
 11
-11.32013267841321
 21
-16.60066339206607
 31
0.0
  0
LINE
  5
58B
330
1F
100
AcDbEntity
  8
2
  6
CONTINUOUS
370
25
 62
7
100
AcDbLine
 10
-12.49653200176735
 20
-15.0
 30
0.0
 11
-11.24942200029456
 21
-16.24711000147279
 31
0.0
  0
LINE
  5
58C
330
1F
100
AcDbEntity
  8
2
  6
CONTINUOUS
370
25
 62
7
100
AcDbLine
 10
-12.07226793305543
 20
-15.0
 30
0.0
 11
-11.1787113221759
 21
-15.89355661087952
 31
0.0
  0
LINE
  5
58D
330
1F
100
AcDbEntity
  8
2
  6
CONTINUOUS
370
25
 62
7
100
AcDbLine
 10
-11.6480038643435
 20
-15.0
 30
0.0
 11
-11.10800064405725
 21
-15.54000322028625
 31
0.0
  0
LINE
  5
58E
330
1F
100
AcDbEntity
  8
2
  6
CONTINUOUS
370
25
 62
7
100
AcDbLine
 10
-11.22373979563157
 20
-15.0
 30
0.0
 11
-11.03728996593859
 21
-15.18644982969298
 31
0.0
  0
LINE
  5
58F
330
1F
100
AcDbEntity
  8
2
  6
CONTINUOUS
370
25
 62
7
100
AcDbLine
 10
-12.0
 20
20.0
 30
0.0
 11
-11.0
 21
15.0
 31
0.0
  0
LINE
  5
590
330
1F
100
AcDbEntity
  8
2
  6
CONTINUOUS
370
25
 62
7
100
AcDbLine
 10
-11.0
 20
15.0
 30
0.0
 11
-13.0
 21
15.0
 31
0.0
  0
LINE
  5
591
330
1F
100
AcDbEntity
  8
2
  6
CONTINUOUS
370
25
 62
7
100
AcDbLine
 10
-13.0
 20
15.0
 30
0.0
 11
-12.0
 21
20.0
 31
0.0
  0
LINE
  5
592
330
1F
100
AcDbEntity
  8
2
  6
CONTINUOUS
370
25
 62
7
100
AcDbLine
 10
-11.30437226013957
 20
15.0
 30
0.0
 11
-11.05072871002326
 21
15.25364355011631
 31
0.0
  0
LINE
  5
593
330
1F
100
AcDbEntity
  8
2
  6
CONTINUOUS
370
25
 62
7
100
AcDbLine
 10
-11.7286363288515
 20
15.0
 30
0.0
 11
-11.12143938814191
 21
15.60719694070958
 31
0.0
  0
LINE
  5
594
330
1F
100
AcDbEntity
  8
2
  6
CONTINUOUS
370
25
 62
7
100
AcDbLine
 10
-12.15290039756342
 20
15.0
 30
0.0
 11
-11.19215006626057
 21
15.96075033130285
 31
0.0
  0
LINE
  5
595
330
1F
100
AcDbEntity
  8
2
  6
CONTINUOUS
370
25
 62
7
100
AcDbLine
 10
-12.57716446627535
 20
15.0
 30
0.0
 11
-11.26286074437922
 21
16.31430372189612
 31
0.0
  0
LINE
  5
596
330
1F
100
AcDbEntity
  8
2
  6
CONTINUOUS
370
25
 62
7
100
AcDbLine
 10
-12.99964286625318
 20
15.0017856687341
 30
0.0
 11
-11.33357142249788
 21
16.6678571124894
 31
0.0
  0
LINE
  5
597
330
1F
100
AcDbEntity
  8
2
  6
CONTINUOUS
370
25
 62
7
100
AcDbLine
 10
-12.8935768490752
 20
15.53211575462401
 30
0.0
 11
-11.40428210061653
 21
17.02141050308267
 31
0.0
  0
LINE
  5
598
330
1F
100
AcDbEntity
  8
2
  6
CONTINUOUS
370
25
 62
7
100
AcDbLine
 10
-12.78751083189721
 20
16.06244584051392
 30
0.0
 11
-11.47499277873519
 21
17.37496389367595
 31
0.0
  0
LINE
  5
599
330
1F
100
AcDbEntity
  8
2
  6
CONTINUOUS
370
25
 62
7
100
AcDbLine
 10
-12.68144481471923
 20
16.59277592640383
 30
0.0
 11
-11.54570345685384
 21
17.72851728426922
 31
0.0
  0
LINE
  5
59A
330
1F
100
AcDbEntity
  8
2
  6
CONTINUOUS
370
25
 62
7
100
AcDbLine
 10
-12.57537879754125
 20
17.12310601229374
 30
0.0
 11
-11.6164141349725
 21
18.08207067486249
 31
0.0
  0
LINE
  5
59B
330
1F
100
AcDbEntity
  8
2
  6
CONTINUOUS
370
25
 62
7
100
AcDbLine
 10
-12.46931278036327
 20
17.65343609818365
 30
0.0
 11
-11.68712481309115
 21
18.43562406545577
 31
0.0
  0
LINE
  5
59C
330
1F
100
AcDbEntity
  8
2
  6
CONTINUOUS
370
25
 62
7
100
AcDbLine
 10
-12.36324676318529
 20
18.18376618407356
 30
0.0
 11
-11.75783549120981
 21
18.78917745604904
 31
0.0
  0
LINE
  5
59D
330
1F
100
AcDbEntity
  8
2
  6
CONTINUOUS
370
25
 62
7
100
AcDbLine
 10
-12.2571807460073
 20
18.71409626996347
 30
0.0
 11
-11.82854616932846
 21
19.14273084664231
 31
0.0
  0
LINE
  5
59E
330
1F
100
AcDbEntity
  8
2
  6
CONTINUOUS
370
25
 62
7
100
AcDbLine
 10
-12.15111472882932
 20
19.24442635585338
 30
0.0
 11
-11.89925684744711
 21
19.49628423723559
 31
0.0
  0
LINE
  5
59F
330
1F
100
AcDbEntity
  8
2
  6
CONTINUOUS
370
25
 62
7
100
AcDbLine
 10
-12.04504871165134
 20
19.77475644174329
 30
0.0
 11
-11.96996752556577
 21
19.84983762782885
 31
0.0
  0
LINE
  5
5A0
330
1F
100
AcDbEntity
  8
2
  6
CONTINUOUS
370
25
 62
7
100
AcDbLine
 10
-12.97977994274006
 20
15.1011002862997
 30
0.0
 11
-12.87867965644036
 21
15.0
 31
0.0
  0
LINE
  5
5A1
330
1F
100
AcDbEntity
  8
2
  6
CONTINUOUS
370
25
 62
7
100
AcDbLine
 10
-12.9090692646214
 20
15.45465367689297
 30
0.0
 11
-12.45441558772843
 21
15.0
 31
0.0
  0
LINE
  5
5A2
330
1F
100
AcDbEntity
  8
2
  6
CONTINUOUS
370
25
 62
7
100
AcDbLine
 10
-12.83835858650275
 20
15.80820706748624
 30
0.0
 11
-12.0301515190165
 21
15.0
 31
0.0
  0
LINE
  5
5A3
330
1F
100
AcDbEntity
  8
2
  6
CONTINUOUS
370
25
 62
7
100
AcDbLine
 10
-12.76764790838409
 20
16.16176045807952
 30
0.0
 11
-11.60588745030457
 21
15.0
 31
0.0
  0
LINE
  5
5A4
330
1F
100
AcDbEntity
  8
2
  6
CONTINUOUS
370
25
 62
7
100
AcDbLine
 10
-12.69693723026544
 20
16.51531384867279
 30
0.0
 11
-11.18162338159265
 21
15.0
 31
0.0
  0
LINE
  5
5A5
330
1F
100
AcDbEntity
  8
2
  6
CONTINUOUS
370
25
 62
7
100
AcDbLine
 10
-12.62622655214678
 20
16.86886723926606
 30
0.0
 11
-11.06066017177982
 21
15.3033008588991
 31
0.0
  0
LINE
  5
5A6
330
1F
100
AcDbEntity
  8
2
  6
CONTINUOUS
370
25
 62
7
100
AcDbLine
 10
-12.55551587402813
 20
17.22242062985933
 30
0.0
 11
-11.1667261889578
 21
15.83363094478901
 31
0.0
  0
LINE
  5
5A7
330
1F
100
AcDbEntity
  8
2
  6
CONTINUOUS
370
25
 62
7
100
AcDbLine
 10
-12.48480519590948
 20
17.57597402045261
 30
0.0
 11
-11.27279220613578
 21
16.36396103067892
 31
0.0
  0
LINE
  5
5A8
330
1F
100
AcDbEntity
  8
2
  6
CONTINUOUS
370
25
 62
7
100
AcDbLine
 10
-12.41409451779082
 20
17.92952741104588
 30
0.0
 11
-11.37885822331376
 21
16.89429111656883
 31
0.0
  0
LINE
  5
5A9
330
1F
100
AcDbEntity
  8
2
  6
CONTINUOUS
370
25
 62
7
100
AcDbLine
 10
-12.34338383967217
 20
18.28308080163915
 30
0.0
 11
-11.48492424049175
 21
17.42462120245874
 31
0.0
  0
LINE
  5
5AA
330
1F
100
AcDbEntity
  8
2
  6
CONTINUOUS
370
25
 62
7
100
AcDbLine
 10
-12.27267316155351
 20
18.63663419223242
 30
0.0
 11
-11.59099025766973
 21
17.95495128834865
 31
0.0
  0
LINE
  5
5AB
330
1F
100
AcDbEntity
  8
2
  6
CONTINUOUS
370
25
 62
7
100
AcDbLine
 10
-12.20196248343486
 20
18.9901875828257
 30
0.0
 11
-11.69705627484771
 21
18.48528137423855
 31
0.0
  0
LINE
  5
5AC
330
1F
100
AcDbEntity
  8
2
  6
CONTINUOUS
370
25
 62
7
100
AcDbLine
 10
-12.1312518053162
 20
19.34374097341897
 30
0.0
 11
-11.80312229202569
 21
19.01561146012846
 31
0.0
  0
LINE
  5
5AD
330
1F
100
AcDbEntity
  8
2
  6
CONTINUOUS
370
25
 62
7
100
AcDbLine
 10
-12.06054112719755
 20
19.69729436401224
 30
0.0
 11
-11.90918830920367
 21
19.54594154601838
 31
0.0
  0
TEXT
  5
5AE
330
1F
100
AcDbEntity
  8
2
  6
CONTINUOUS
370
25
 62
7
100
AcDbText
 10
-13.5
 20
-0.350000000000001
 30
0.0
 40
3.500000000000001
  1
40
 50
90.0
 72
     1
 11
-13.5
 21
2.275
 31
0.0
100
AcDbText
  0
CIRCLE
  5
5AF
330
1F
100
AcDbEntity
  8
2
  6
CONTINUOUS
370
25
 62
7
100
AcDbCircle
 10
-15.25
 20
-2.625
 30
0.0
 40
1.4
  0
LINE
  5
5B0
330
1F
100
AcDbEntity
  8
2
  6
CONTINUOUS
370
25
 62
7
100
AcDbLine
 10
-13.85
 20
-4.024999999999999
 30
0.0
 11
-16.65
 21
-1.224999999999999
 31
0.0
  0
LINE
  5
5B1
330
1F
100
AcDbEntity
  8
4
  6
LONGDASH_DASH
370
25
 62
2
100
AcDbLine
 10
0.0
 20
0.0
 30
0.0
 11
63.0
 21
0.0
 31
0.0
  0
LINE
  5
5B2
330
1F
100
AcDbEntity
  8
SK1
  6
CONTINUOUS
370
50
 62
4
100
AcDbLine
 10
0.0
 20
0.0
 30
0.0
 11
1.75
 21
0.0
 31
0.0
  0
LINE
  5
5B3
330
1F
100
AcDbEntity
  8
SK1
  6
CONTINUOUS
370
50
 62
4
100
AcDbLine
 10
0.0
 20
0.0
 30
0.0
 11
0.0
 21
1.75
 31
0.0
  0
ARC
  5
5B4
330
1F
100
AcDbEntity
  8
SK1
  6
CONTINUOUS
370
50
 62
4
100
AcDbCircle
 10
0.0
 20
0.0
 30
0.0
 40
1.75
100
AcDbArc
 50
0.0
 51
90.0
  0
LINE
  5
5B5
330
1F
100
AcDbEntity
  8
SK1
  6
CONTINUOUS
370
50
 62
4
100
AcDbLine
 10
0.0
 20
0.0
 30
0.0
 11
-1.75
 21
0.0
 31
0.0
  0
ARC
  5
5B6
330
1F
100
AcDbEntity
  8
SK1
  6
CONTINUOUS
370
50
 62
4
100
AcDbCircle
 10
0.0
 20
0.0
 30
0.0
 40
1.75
100
AcDbArc
 50
180.0
 51
270.0
  0
LINE
  5
5B7
330
1F
100
AcDbEntity
  8
SK1
  6
CONTINUOUS
370
50
 62
4
100
AcDbLine
 10
0.0
 20
-1.75
 30
0.0
 11
0.0
 21
0.0
 31
0.0
  0
ARC
  5
5B8
330
1F
100
AcDbEntity
  8
SK1
  6
CONTINUOUS
370
50
 62
4
100
AcDbCircle
 10
0.0
 20
0.0
 30
0.0
 40
1.75
100
AcDbArc
 50
270.0
 51
0.0
  0
ARC
  5
5B9
330
1F
100
AcDbEntity
  8
SK1
  6
CONTINUOUS
370
50
 62
4
100
AcDbCircle
 10
0.0
 20
0.0
 30
0.0
 40
1.75
100
AcDbArc
 50
90.0
 51
180.0
  0
LINE
  5
5BA
330
1F
100
AcDbEntity
  8
SK1
  6
CONTINUOUS
370
50
 62
4
100
AcDbLine
 10
-0.2228272525842667
 20
-1.73564731720198
 30
0.0
 11
0.0
 21
-1.512820064617713
 31
0.0
  0
LINE
  5
5BB
330
1F
100
AcDbEntity
  8
SK1
  6
CONTINUOUS
370
50
 62
4
100
AcDbLine
 10
1.512820064617712
 20
0.0
 30
0.0
 11
1.73564731720198
 21
0.2228272525842674
 31
0.0
  0
LINE
  5
5BC
330
1F
100
AcDbEntity
  8
SK1
  6
CONTINUOUS
370
50
 62
4
100
AcDbLine
 10
-0.4306961931812687
 20
-1.69602888438369
 30
0.0
 11
0.0
 21
-1.265332691202421
 31
0.0
  0
LINE
  5
5BD
330
1F
100
AcDbEntity
  8
SK1
  6
CONTINUOUS
370
50
 62
4
100
AcDbLine
 10
1.26533269120242
 20
0.0
 30
0.0
 11
1.696028884383689
 21
0.4306961931812696
 31
0.0
  0
LINE
  5
5BE
330
1F
100
AcDbEntity
  8
SK1
  6
CONTINUOUS
370
50
 62
4
100
AcDbLine
 10
-0.6185165956423545
 20
-1.636361913429485
 30
0.0
 11
0.0
 21
-1.01784531778713
 31
0.0
  0
LINE
  5
5BF
330
1F
100
AcDbEntity
  8
SK1
  6
CONTINUOUS
370
50
 62
4
100
AcDbLine
 10
1.017845317787129
 20
0.0
 30
0.0
 11
1.636361913429484
 21
0.6185165956423557
 31
0.0
  0
LINE
  5
5C0
330
1F
100
AcDbEntity
  8
SK1
  6
CONTINUOUS
370
50
 62
4
100
AcDbLine
 10
-0.7901448905372002
 20
-1.560502834909039
 30
0.0
 11
0.0
 21
-0.7703579443718382
 31
0.0
  0
LINE
  5
5C1
330
1F
100
AcDbEntity
  8
SK1
  6
CONTINUOUS
370
50
 62
4
100
AcDbLine
 10
0.7703579443718377
 20
0.0
 30
0.0
 11
1.560502834909038
 21
0.7901448905372013
 31
0.0
  0
LINE
  5
5C2
330
1F
100
AcDbEntity
  8
SK1
  6
CONTINUOUS
370
50
 62
4
100
AcDbLine
 10
-0.9478221678055315
 20
-1.470692738762079
 30
0.0
 11
0.0
 21
-0.5228705709565462
 31
0.0
  0
LINE
  5
5C3
330
1F
100
AcDbEntity
  8
SK1
  6
CONTINUOUS
370
50
 62
4
100
AcDbLine
 10
0.5228705709565458
 20
0.0
 30
0.0
 11
1.470692738762078
 21
0.947822167805533
 31
0.0
  0
LINE
  5
5C4
330
1F
100
AcDbEntity
  8
SK1
  6
CONTINUOUS
370
50
 62
4
100
AcDbLine
 10
-1.091570432884521
 20
-1.366953630425777
 30
0.0
 11
0.0
 21
-0.2753831975412551
 31
0.0
  0
LINE
  5
5C5
330
1F
100
AcDbEntity
  8
SK1
  6
CONTINUOUS
370
50
 62
4
100
AcDbLine
 10
0.2753831975412548
 20
0.0
 30
0.0
 11
1.366953630425776
 21
1.091570432884522
 31
0.0
  0
LINE
  5
5C6
330
1F
100
AcDbEntity
  8
SK1
  6
CONTINUOUS
370
50
 62
4
100
AcDbLine
 10
-1.222878354618355
 20
-1.25077417874432
 30
0.0
 11
0.0
 21
-0.0278958241259639
 31
0.0
  0
LINE
  5
5C7
330
1F
100
AcDbEntity
  8
SK1
  6
CONTINUOUS
370
50
 62
4
100
AcDbLine
 10
0.0278958241259639
 20
0.0
 30
0.0
 11
1.250774178744319
 21
1.222878354618356
 31
0.0
  0
LINE
  5
5C8
330
1F
100
AcDbEntity
  8
SK1
  6
CONTINUOUS
370
50
 62
4
100
AcDbLine
 10
-1.342159696286539
 20
-1.122568146997212
 30
0.0
 11
-0.2195915492893275
 21
0.0
 31
0.0
  0
LINE
  5
5C9
330
1F
100
AcDbEntity
  8
SK1
  6
CONTINUOUS
370
50
 62
4
100
AcDbLine
 10
0.0
 20
0.2195915492893277
 30
0.0
 11
1.122568146997211
 21
1.34215969628654
 31
0.0
  0
LINE
  5
5CA
330
1F
100
AcDbEntity
  8
SK1
  6
CONTINUOUS
370
50
 62
4
100
AcDbLine
 10
-1.448118327687437
 20
-0.9810394049828186
 30
0.0
 11
-0.4670789227046189
 21
0.0
 31
0.0
  0
LINE
  5
5CB
330
1F
100
AcDbEntity
  8
SK1
  6
CONTINUOUS
370
50
 62
4
100
AcDbLine
 10
0.0
 20
0.4670789227046193
 30
0.0
 11
0.9810394049828175
 21
1.448118327687438
 31
0.0
  0
LINE
  5
5CC
330
1F
100
AcDbEntity
  8
SK1
  6
CONTINUOUS
370
50
 62
4
100
AcDbLine
 10
-1.541670913484249
 20
-0.8271046173643402
 30
0.0
 11
-0.7145662961199095
 21
0.0
 31
0.0
  0
LINE
  5
5CD
330
1F
100
AcDbEntity
  8
SK1
  6
CONTINUOUS
370
50
 62
4
100
AcDbLine
 10
0.0
 20
0.71456629611991
 30
0.0
 11
0.8271046173643392
 21
1.54167091348425
 31
0.0
  0
LINE
  5
5CE
330
1F
100
AcDbEntity
  8
SK1
  6
CONTINUOUS
370
50
 62
4
100
AcDbLine
 10
-1.620815261757953
 20
-0.6587615922227528
 30
0.0
 11
-0.9620536695352009
 21
0.0
 31
0.0
  0
LINE
  5
5CF
330
1F
100
AcDbEntity
  8
SK1
  6
CONTINUOUS
370
50
 62
4
100
AcDbLine
 10
0.0
 20
0.9620536695352015
 30
0.0
 11
0.6587615922227518
 21
1.620815261757954
 31
0.0
  0
LINE
  5
5D0
330
1F
100
AcDbEntity
  8
SK1
  6
CONTINUOUS
370
50
 62
4
100
AcDbLine
 10
-1.683703122930369
 20
-0.474162079979876
 30
0.0
 11
-1.209541042950493
 21
0.0
 31
0.0
  0
LINE
  5
5D1
330
1F
100
AcDbEntity
  8
SK1
  6
CONTINUOUS
370
50
 62
4
100
AcDbLine
 10
0.0
 20
1.209541042950494
 30
0.0
 11
0.474162079979875
 21
1.683703122930369
 31
0.0
  0
LINE
  5
5D2
330
1F
100
AcDbEntity
  8
SK1
  6
CONTINUOUS
370
50
 62
4
100
AcDbLine
 10
-1.728018995657286
 20
-0.2709905792915031
 30
0.0
 11
-1.457028416365783
 21
0.0
 31
0.0
  0
LINE
  5
5D3
330
1F
100
AcDbEntity
  8
SK1
  6
CONTINUOUS
370
50
 62
4
100
AcDbLine
 10
0.0
 20
1.457028416365784
 30
0.0
 11
0.2709905792915025
 21
1.728018995657286
 31
0.0
  0
LINE
  5
5D4
330
1F
100
AcDbEntity
  8
SK1
  6
CONTINUOUS
370
50
 62
4
100
AcDbLine
 10
-1.748614153102194
 20
-0.0440983633211194
 30
0.0
 11
-1.704515789781075
 21
0.0
 31
0.0
  0
LINE
  5
5D5
330
1F
100
AcDbEntity
  8
SK1
  6
CONTINUOUS
370
50
 62
4
100
AcDbLine
 10
0.0
 20
1.704515789781075
 30
0.0
 11
0.0440983633211188
 21
1.748614153102194
 31
0.0
  0
LINE
  5
5D6
330
1F
100
AcDbEntity
  8
SK1
  6
CONTINUOUS
370
50
 62
4
100
AcDbLine
 10
-1.636134823963185
 20
-0.6191473609004006
 30
0.0
 11
-0.6191473609003987
 21
-1.636134823963186
 31
0.0
  0
LINE
  5
5D7
330
1F
100
AcDbEntity
  8
SK1
  6
CONTINUOUS
370
50
 62
4
100
AcDbLine
 10
-1.726365693564548
 20
-0.2814291178837463
 30
0.0
 11
-0.2814291178837454
 21
-1.726365693564548
 31
0.0
  0
LINE
  5
5D8
330
1F
100
AcDbEntity
  8
SK1
  6
CONTINUOUS
370
50
 62
4
100
AcDbLine
 10
-1.749665565688502
 20
-0.0106418723445003
 30
0.0
 11
-0.0106418723444989
 21
-1.749665565688503
 31
0.0
  0
LINE
  5
5D9
330
1F
100
AcDbEntity
  8
SK1
  6
CONTINUOUS
370
50
 62
4
100
AcDbLine
 10
-1.512820064617711
 20
0.0
 30
0.0
 11
0.0
 21
-1.51282006461771
 31
0.0
  0
LINE
  5
5DA
330
1F
100
AcDbEntity
  8
SK1
  6
CONTINUOUS
370
50
 62
4
100
AcDbLine
 10
-1.265332691202419
 20
0.0
 30
0.0
 11
0.0
 21
-1.265332691202418
 31
0.0
  0
LINE
  5
5DB
330
1F
100
AcDbEntity
  8
SK1
  6
CONTINUOUS
370
50
 62
4
100
AcDbLine
 10
-1.017845317787128
 20
0.0
 30
0.0
 11
0.0
 21
-1.017845317787128
 31
0.0
  0
LINE
  5
5DC
330
1F
100
AcDbEntity
  8
SK1
  6
CONTINUOUS
370
50
 62
4
100
AcDbLine
 10
-0.7703579443718372
 20
0.0
 30
0.0
 11
0.0
 21
-0.7703579443718369
 31
0.0
  0
LINE
  5
5DD
330
1F
100
AcDbEntity
  8
SK1
  6
CONTINUOUS
370
50
 62
4
100
AcDbLine
 10
-0.5228705709565455
 20
0.0
 30
0.0
 11
0.0
 21
-0.5228705709565453
 31
0.0
  0
LINE
  5
5DE
330
1F
100
AcDbEntity
  8
SK1
  6
CONTINUOUS
370
50
 62
4
100
AcDbLine
 10
-0.2753831975412538
 20
0.0
 30
0.0
 11
0.0
 21
-0.2753831975412537
 31
0.0
  0
LINE
  5
5DF
330
1F
100
AcDbEntity
  8
SK1
  6
CONTINUOUS
370
50
 62
4
100
AcDbLine
 10
-0.027895824125963
 20
0.0
 30
0.0
 11
0.0
 21
-0.027895824125963
 31
0.0
  0
LINE
  5
5E0
330
1F
100
AcDbEntity
  8
SK1
  6
CONTINUOUS
370
50
 62
4
100
AcDbLine
 10
0.0
 20
0.219591549289329
 30
0.0
 11
0.2195915492893291
 21
0.0
 31
0.0
  0
LINE
  5
5E1
330
1F
100
AcDbEntity
  8
SK1
  6
CONTINUOUS
370
50
 62
4
100
AcDbLine
 10
0.0
 20
0.4670789227046202
 30
0.0
 11
0.4670789227046204
 21
0.0
 31
0.0
  0
LINE
  5
5E2
330
1F
100
AcDbEntity
  8
SK1
  6
CONTINUOUS
370
50
 62
4
100
AcDbLine
 10
0.0
 20
0.7145662961199113
 30
0.0
 11
0.7145662961199116
 21
0.0
 31
0.0
  0
LINE
  5
5E3
330
1F
100
AcDbEntity
  8
SK1
  6
CONTINUOUS
370
50
 62
4
100
AcDbLine
 10
0.0
 20
0.9620536695352029
 30
0.0
 11
0.9620536695352035
 21
0.0
 31
0.0
  0
LINE
  5
5E4
330
1F
100
AcDbEntity
  8
SK1
  6
CONTINUOUS
370
50
 62
4
100
AcDbLine
 10
0.0
 20
1.209541042950494
 30
0.0
 11
1.209541042950495
 21
0.0
 31
0.0
  0
LINE
  5
5E5
330
1F
100
AcDbEntity
  8
SK1
  6
CONTINUOUS
370
50
 62
4
100
AcDbLine
 10
0.0
 20
1.457028416365785
 30
0.0
 11
1.457028416365786
 21
0.0
 31
0.0
  0
LINE
  5
5E6
330
1F
100
AcDbEntity
  8
SK1
  6
CONTINUOUS
370
50
 62
4
100
AcDbLine
 10
0.0
 20
1.704515789781076
 30
0.0
 11
1.704515789781077
 21
0.0
 31
0.0
  0
LINE
  5
5E7
330
1F
100
AcDbEntity
  8
SK1
  6
CONTINUOUS
370
50
 62
4
100
AcDbLine
 10
0.2154338419356704
 20
1.736569321260697
 30
0.0
 11
1.736569321260697
 21
0.2154338419356714
 31
0.0
  0
LINE
  5
5E8
330
1F
100
AcDbEntity
  8
SK1
  6
CONTINUOUS
370
50
 62
4
100
AcDbLine
 10
0.5328328472899302
 20
1.666657689321729
 30
0.0
 11
1.666657689321728
 21
0.5328328472899322
 31
0.0
  0
LINE
  5
5E9
330
1F
100
AcDbEntity
  8
SK1
  6
CONTINUOUS
370
50
 62
4
100
AcDbLine
 10
1.040098749056744
 20
1.406879160970207
 30
0.0
 11
1.406879160970204
 21
1.040098749056747
 31
0.0
  0
LINE
  5
5EA
330
1F
100
AcDbEntity
  8
2
  6
CONTINUOUS
370
25
 62
7
100
AcDbLine
 10
63.0
 20
62.5
 30
0.0
 11
49.5649711574556
 21
75.9350288425444
 31
0.0
  0
LINE
  5
5EB
330
1F
100
AcDbEntity
  8
2
  6
CONTINUOUS
370
25
 62
7
100
AcDbLine
 10
63.0
 20
62.5
 30
0.0
 11
63.0
 21
81.5
 31
0.0
  0
ARC
  5
5EC
330
1F
100
AcDbEntity
  8
2
  6
CONTINUOUS
370
25
 62
7
100
AcDbCircle
 10
62.99999999999996
 20
62.50000000000006
 30
0.0
 40
17.99999999999996
100
AcDbArc
 50
67.57545716470042
 51
157.4245428352995
  0
LINE
  5
5ED
330
1F
100
AcDbEntity
  8
2
  6
CONTINUOUS
370
25
 62
7
100
AcDbLine
 10
50.27207793864214
 20
75.22792206135786
 30
0.0
 11
48.06031966386303
 21
70.63356407204682
 31
0.0
  0
LINE
  5
5EE
330
1F
100
AcDbEntity
  8
2
  6
CONTINUOUS
370
25
 62
7
100
AcDbLine
 10
48.06031966386303
 20
70.63356407204682
 30
0.0
 11
46.46339415064948
 21
71.83765248460116
 31
0.0
  0
LINE
  5
5EF
330
1F
100
AcDbEntity
  8
2
  6
CONTINUOUS
370
25
 62
7
100
AcDbLine
 10
46.46339415064948
 20
71.83765248460116
 30
0.0
 11
50.27207793864214
 21
75.22792206135786
 31
0.0
  0
LINE
  5
5F0
330
1F
100
AcDbEntity
  8
2
  6
CONTINUOUS
370
25
 62
7
100
AcDbLine
 10
47.86817912162123
 20
70.77843883206597
 30
0.0
 11
48.37316969022564
 21
71.2834294006704
 31
0.0
  0
LINE
  5
5F1
330
1F
100
AcDbEntity
  8
2
  6
CONTINUOUS
370
25
 62
7
100
AcDbLine
 10
47.62629595587434
 20
70.96081973503101
 30
0.0
 11
48.76701241543952
 21
72.1015361945962
 31
0.0
  0
LINE
  5
5F2
330
1F
100
AcDbEntity
  8
2
  6
CONTINUOUS
370
25
 62
7
100
AcDbLine
 10
47.38441279012744
 20
71.14320063799605
 30
0.0
 11
49.1608551406534
 21
72.91964298852201
 31
0.0
  0
LINE
  5
5F3
330
1F
100
AcDbEntity
  8
2
  6
CONTINUOUS
370
25
 62
7
100
AcDbLine
 10
47.14252962438056
 20
71.32558154096108
 30
0.0
 11
49.55469786586728
 21
73.7377497824478
 31
0.0
  0
LINE
  5
5F4
330
1F
100
AcDbEntity
  8
2
  6
CONTINUOUS
370
25
 62
7
100
AcDbLine
 10
46.90064645863367
 20
71.50796244392613
 30
0.0
 11
49.94854059108116
 21
74.55585657637361
 31
0.0
  0
LINE
  5
5F5
330
1F
100
AcDbEntity
  8
2
  6
CONTINUOUS
370
25
 62
7
100
AcDbLine
 10
46.65876329288677
 20
71.69034334689115
 30
0.0
 11
49.58267923773371
 21
74.6142592917381
 31
0.0
  0
LINE
  5
5F6
330
1F
100
AcDbEntity
  8
2
  6
CONTINUOUS
370
25
 62
7
100
AcDbLine
 10
46.49970281620717
 20
71.86997235442101
 30
0.0
 11
46.74237660646879
 21
71.62729856415939
 31
0.0
  0
LINE
  5
5F7
330
1F
100
AcDbEntity
  8
2
  6
CONTINUOUS
370
25
 62
7
100
AcDbLine
 10
46.72416428976572
 20
72.06977494957438
 30
0.0
 11
48.09283432847678
 21
70.70110491086334
 31
0.0
  0
LINE
  5
5F8
330
1F
100
AcDbEntity
  8
2
  6
CONTINUOUS
370
25
 62
7
100
AcDbLine
 10
46.94862576332427
 20
72.26957754472775
 30
0.0
 11
48.23070584407459
 21
70.98749746397743
 31
0.0
  0
LINE
  5
5F9
330
1F
100
AcDbEntity
  8
2
  6
CONTINUOUS
370
25
 62
7
100
AcDbLine
 10
47.17308723688281
 20
72.46938013988114
 30
0.0
 11
48.36857735967241
 21
71.27389001709155
 31
0.0
  0
LINE
  5
5FA
330
1F
100
AcDbEntity
  8
2
  6
CONTINUOUS
370
25
 62
7
100
AcDbLine
 10
47.39754871044136
 20
72.66918273503451
 30
0.0
 11
48.50644887527022
 21
71.56028257020566
 31
0.0
  0
LINE
  5
5FB
330
1F
100
AcDbEntity
  8
2
  6
CONTINUOUS
370
25
 62
7
100
AcDbLine
 10
47.62201018399992
 20
72.86898533018788
 30
0.0
 11
48.64432039086804
 21
71.84667512331977
 31
0.0
  0
LINE
  5
5FC
330
1F
100
AcDbEntity
  8
2
  6
CONTINUOUS
370
25
 62
7
100
AcDbLine
 10
47.84647165755847
 20
73.06878792534127
 30
0.0
 11
48.78219190646587
 21
72.13306767643388
 31
0.0
  0
LINE
  5
5FD
330
1F
100
AcDbEntity
  8
2
  6
CONTINUOUS
370
25
 62
7
100
AcDbLine
 10
48.07093313111702
 20
73.26859052049466
 30
0.0
 11
48.92006342206368
 21
72.41946022954798
 31
0.0
  0
LINE
  5
5FE
330
1F
100
AcDbEntity
  8
2
  6
CONTINUOUS
370
25
 62
7
100
AcDbLine
 10
48.29539460467556
 20
73.46839311564801
 30
0.0
 11
49.05793493766149
 21
72.70585278266209
 31
0.0
  0
LINE
  5
5FF
330
1F
100
AcDbEntity
  8
2
  6
CONTINUOUS
370
25
 62
7
100
AcDbLine
 10
48.51985607823412
 20
73.6681957108014
 30
0.0
 11
49.19580645325931
 21
72.9922453357762
 31
0.0
  0
LINE
  5
600
330
1F
100
AcDbEntity
  8
2
  6
CONTINUOUS
370
25
 62
7
100
AcDbLine
 10
48.74431755179268
 20
73.86799830595479
 30
0.0
 11
49.33367796885712
 21
73.27863788889033
 31
0.0
  0
LINE
  5
601
330
1F
100
AcDbEntity
  8
2
  6
CONTINUOUS
370
25
 62
7
100
AcDbLine
 10
48.96877902535122
 20
74.06780090110816
 30
0.0
 11
49.47154948445494
 21
73.56503044200443
 31
0.0
  0
LINE
  5
602
330
1F
100
AcDbEntity
  8
2
  6
CONTINUOUS
370
25
 62
7
100
AcDbLine
 10
49.19324049890977
 20
74.26760349626153
 30
0.0
 11
49.60942100005276
 21
73.85142299511854
 31
0.0
  0
LINE
  5
603
330
1F
100
AcDbEntity
  8
2
  6
CONTINUOUS
370
25
 62
7
100
AcDbLine
 10
49.41770197246832
 20
74.46740609141492
 30
0.0
 11
49.74729251565058
 21
74.13781554823265
 31
0.0
  0
LINE
  5
604
330
1F
100
AcDbEntity
  8
2
  6
CONTINUOUS
370
25
 62
7
100
AcDbLine
 10
49.64216344602687
 20
74.66720868656827
 30
0.0
 11
49.88516403124839
 21
74.42420810134675
 31
0.0
  0
LINE
  5
605
330
1F
100
AcDbEntity
  8
2
  6
CONTINUOUS
370
25
 62
7
100
AcDbLine
 10
49.86662491958542
 20
74.86701128172166
 30
0.0
 11
50.02303554684622
 21
74.71060065446088
 31
0.0
  0
LINE
  5
606
330
1F
100
AcDbEntity
  8
2
  6
CONTINUOUS
370
25
 62
7
100
AcDbLine
 10
50.09108639314397
 20
75.06681387687505
 30
0.0
 11
50.16090706244403
 21
74.99699320757497
 31
0.0
  0
LINE
  5
607
330
1F
100
AcDbEntity
  8
2
  6
CONTINUOUS
370
25
 62
7
100
AcDbLine
 10
63.0
 20
80.5
 30
0.0
 11
68.09042874165996
 21
80.79586352610977
 31
0.0
  0
LINE
  5
608
330
1F
100
AcDbEntity
  8
2
  6
CONTINUOUS
370
25
 62
7
100
AcDbLine
 10
68.09042874165996
 20
80.79586352610977
 30
0.0
 11
67.81265096388219
 21
78.81524758500134
 31
0.0
  0
LINE
  5
609
330
1F
100
AcDbEntity
  8
2
  6
CONTINUOUS
370
25
 62
7
100
AcDbLine
 10
67.81265096388219
 20
78.81524758500134
 30
0.0
 11
63.0
 21
80.5
 31
0.0
  0
LINE
  5
60A
330
1F
100
AcDbEntity
  8
2
  6
CONTINUOUS
370
25
 62
7
100
AcDbLine
 10
67.79171188743372
 20
78.82257767394384
 30
0.0
 11
67.81726240970896
 21
78.84812819621908
 31
0.0
  0
LINE
  5
60B
330
1F
100
AcDbEntity
  8
2
  6
CONTINUOUS
370
25
 62
7
100
AcDbLine
 10
67.4774579062412
 20
78.93258776146324
 30
0.0
 11
67.8864710595593
 21
79.34160091478134
 31
0.0
  0
LINE
  5
60C
330
1F
100
AcDbEntity
  8
2
  6
CONTINUOUS
370
25
 62
7
100
AcDbLine
 10
67.16320392504868
 20
79.04259784898264
 30
0.0
 11
67.95567970940964
 21
79.8350736333436
 31
0.0
  0
LINE
  5
60D
330
1F
100
AcDbEntity
  8
2
  6
CONTINUOUS
370
25
 62
7
100
AcDbLine
 10
66.84894994385618
 20
79.15260793650208
 30
0.0
 11
68.02488835925999
 21
80.32854635190586
 31
0.0
  0
LINE
  5
60E
330
1F
100
AcDbEntity
  8
2
  6
CONTINUOUS
370
25
 62
7
100
AcDbLine
 10
66.53469596266365
 20
79.26261802402146
 30
0.0
 11
68.0665538175432
 21
80.79447587890101
 31
0.0
  0
LINE
  5
60F
330
1F
100
AcDbEntity
  8
2
  6
CONTINUOUS
370
25
 62
7
100
AcDbLine
 10
66.22044198147113
 20
79.37262811154088
 30
0.0
 11
67.61610921780758
 21
80.76829534787731
 31
0.0
  0
LINE
  5
610
330
1F
100
AcDbEntity
  8
2
  6
CONTINUOUS
370
25
 62
7
100
AcDbLine
 10
65.90618800027862
 20
79.48263819906029
 30
0.0
 11
67.16566461807197
 21
80.74211481685361
 31
0.0
  0
LINE
  5
611
330
1F
100
AcDbEntity
  8
2
  6
CONTINUOUS
370
25
 62
7
100
AcDbLine
 10
65.5919340190861
 20
79.59264828657969
 30
0.0
 11
66.71522001833637
 21
80.71593428582995
 31
0.0
  0
LINE
  5
612
330
1F
100
AcDbEntity
  8
2
  6
CONTINUOUS
370
25
 62
7
100
AcDbLine
 10
65.27768003789357
 20
79.70265837409909
 30
0.0
 11
66.26477541860076
 21
80.68975375480628
 31
0.0
  0
LINE
  5
613
330
1F
100
AcDbEntity
  8
2
  6
CONTINUOUS
370
25
 62
7
100
AcDbLine
 10
64.96342605670107
 20
79.8126684616185
 30
0.0
 11
65.81433081886514
 21
80.66357322378258
 31
0.0
  0
LINE
  5
614
330
1F
100
AcDbEntity
  8
2
  6
CONTINUOUS
370
25
 62
7
100
AcDbLine
 10
64.64917207550855
 20
79.92267854913791
 30
0.0
 11
65.36388621912954
 21
80.63739269275891
 31
0.0
  0
LINE
  5
615
330
1F
100
AcDbEntity
  8
2
  6
CONTINUOUS
370
25
 62
7
100
AcDbLine
 10
64.33491809431602
 20
80.03268863665731
 30
0.0
 11
64.91344161939392
 21
80.61121216173521
 31
0.0
  0
LINE
  5
616
330
1F
100
AcDbEntity
  8
2
  6
CONTINUOUS
370
25
 62
7
100
AcDbLine
 10
64.02066411312349
 20
80.14269872417671
 30
0.0
 11
64.46299701965832
 21
80.58503163071154
 31
0.0
  0
LINE
  5
617
330
1F
100
AcDbEntity
  8
2
  6
CONTINUOUS
370
25
 62
7
100
AcDbLine
 10
63.70641013193099
 20
80.25270881169614
 30
0.0
 11
64.01255241992271
 21
80.55885109968784
 31
0.0
  0
LINE
  5
618
330
1F
100
AcDbEntity
  8
2
  6
CONTINUOUS
370
25
 62
7
100
AcDbLine
 10
63.39215615073847
 20
80.36271889921554
 30
0.0
 11
63.56210782018709
 21
80.53267056866416
 31
0.0
  0
LINE
  5
619
330
1F
100
AcDbEntity
  8
2
  6
CONTINUOUS
370
25
 62
7
100
AcDbLine
 10
63.07790216954594
 20
80.47272898673492
 30
0.0
 11
63.11166322045148
 21
80.50649003764048
 31
0.0
  0
LINE
  5
61A
330
1F
100
AcDbEntity
  8
2
  6
CONTINUOUS
370
25
 62
7
100
AcDbLine
 10
63.3076388514447
 20
80.51788044189911
 30
0.0
 11
63.50085088003652
 21
80.32466841330728
 31
0.0
  0
LINE
  5
61B
330
1F
100
AcDbEntity
  8
2
  6
CONTINUOUS
370
25
 62
7
100
AcDbLine
 10
63.70859852872546
 20
80.54118483333028
 30
0.0
 11
64.15363256311122
 21
80.09615079894452
 31
0.0
  0
LINE
  5
61C
330
1F
100
AcDbEntity
  8
2
  6
CONTINUOUS
370
25
 62
7
100
AcDbLine
 10
64.10955820600621
 20
80.56448922476145
 30
0.0
 11
64.80641424618587
 21
79.86763318458179
 31
0.0
  0
LINE
  5
61D
330
1F
100
AcDbEntity
  8
2
  6
CONTINUOUS
370
25
 62
7
100
AcDbLine
 10
64.51051788328697
 20
80.58779361619263
 30
0.0
 11
65.45919592926055
 21
79.63911557021903
 31
0.0
  0
LINE
  5
61E
330
1F
100
AcDbEntity
  8
2
  6
CONTINUOUS
370
25
 62
7
100
AcDbLine
 10
64.91147756056772
 20
80.61109800762378
 30
0.0
 11
66.11197761233521
 21
79.41059795585629
 31
0.0
  0
LINE
  5
61F
330
1F
100
AcDbEntity
  8
2
  6
CONTINUOUS
370
25
 62
7
100
AcDbLine
 10
65.31243723784848
 20
80.63440239905495
 30
0.0
 11
66.76475929540989
 21
79.18208034149353
 31
0.0
  0
LINE
  5
620
330
1F
100
AcDbEntity
  8
2
  6
CONTINUOUS
370
25
 62
7
100
AcDbLine
 10
65.71339691512922
 20
80.65770679048613
 30
0.0
 11
67.41754097848454
 21
78.9535627271308
 31
0.0
  0
LINE
  5
621
330
1F
100
AcDbEntity
  8
2
  6
CONTINUOUS
370
25
 62
7
100
AcDbLine
 10
66.11435659240999
 20
80.68101118191728
 30
0.0
 11
67.83324933382137
 21
78.96211844050589
 31
0.0
  0
LINE
  5
622
330
1F
100
AcDbEntity
  8
2
  6
CONTINUOUS
370
25
 62
7
100
AcDbLine
 10
66.51531626969074
 20
80.70431557334847
 30
0.0
 11
67.885432940786
 21
79.33419890225319
 31
0.0
  0
LINE
  5
623
330
1F
100
AcDbEntity
  8
2
  6
CONTINUOUS
370
25
 62
7
100
AcDbLine
 10
66.9162759469715
 20
80.72761996477962
 30
0.0
 11
67.93761654775064
 21
79.70627936400048
 31
0.0
  0
LINE
  5
624
330
1F
100
AcDbEntity
  8
2
  6
CONTINUOUS
370
25
 62
7
100
AcDbLine
 10
67.31723562425225
 20
80.7509243562108
 30
0.0
 11
67.98980015471527
 21
80.07835982574777
 31
0.0
  0
LINE
  5
625
330
1F
100
AcDbEntity
  8
2
  6
CONTINUOUS
370
25
 62
7
100
AcDbLine
 10
67.71819530153299
 20
80.77422874764197
 30
0.0
 11
68.04198376167989
 21
80.45044028749507
 31
0.0
  0
TEXT
  5
626
330
1F
100
AcDbEntity
  8
2
  6
CONTINUOUS
370
25
 62
7
100
AcDbText
 10
51.76516497779299
 20
78.95302686847931
 30
0.0
 40
3.500000000000003
  1
45°
 50
22.49999999999999
 72
     1
 11
55.53767306888075
 21
80.5156508839701
 31
0.0
100
AcDbText
  0
LINE
  5
627
330
1F
100
AcDbEntity
  8
INFTOTAL
  6
CONTINUOUS
370
18
 62
9
100
AcDbLine
 10
-35.200011
 20
-109.520368848
 30
0.0
 11
126.500010285
 21
-109.520368848
 31
0.0
  0
LINE
  5
628
330
1F
100
AcDbEntity
  8
INFTOTAL
  6
CONTINUOUS
370
18
 62
9
100
AcDbLine
 10
126.500010285
 20
-109.520368848
 30
0.0
 11
126.500010285
 21
109.520368848
 31
0.0
  0
LINE
  5
629
330
1F
100
AcDbEntity
  8
INFTOTAL
  6
CONTINUOUS
370
18
 62
9
100
AcDbLine
 10
126.500010285
 20
109.520368848
 30
0.0
 11
-35.200011
 21
109.520368848
 31
0.0
  0
LINE
  5
62A
330
1F
100
AcDbEntity
  8
INFTOTAL
  6
CONTINUOUS
370
18
 62
9
100
AcDbLine
 10
-35.200011
 20
109.520368848
 30
0.0
 11
-35.200011
 21
-109.520368848
 31
0.0
  0
ARC
  5
62B
330
1F
100
AcDbEntity
  8
SK6
  6
CONTINUOUS
370
25
 62
5
100
AcDbCircle
 10
88.7613812983765
 20
-98.86560360338785
 30
0.0
 40
2.760489128492213
100
AcDbArc
 50
338.9379403434231
 51
90.44457437511362
  0
LINE
  5
62C
330
1F
100
AcDbEntity
  8
SK6
  6
CONTINUOUS
370
25
 62
5
100
AcDbLine
 10
88.73996208695984
 20
-96.10519757421281
 30
0.0
 11
88.73996208695984
 21
-97.20825620613464
 31
0.0
  0
ARC
  5
62D
330
1F
100
AcDbEntity
  8
SK6
  6
CONTINUOUS
370
25
 62
5
100
AcDbCircle
 10
88.75050831936916
 20
-98.8855970956682
 30
0.0
 40
1.677374043771773
100
AcDbArc
 50
243.4214706017867
 51
90.36024081226083
  0
ARC
  5
62E
330
1F
100
AcDbEntity
  8
SK6
  6
CONTINUOUS
370
25
 62
5
100
AcDbCircle
 10
91.27275918684958
 20
-98.4541898421556
 30
0.0
 40
3.800217030022758
100
AcDbArc
 50
210.5483731288539
 51
236.97801693668
  0
LINE
  5
62F
330
1F
100
AcDbEntity
  8
SK6
  6
CONTINUOUS
370
25
 62
5
100
AcDbLine
 10
89.20178997512487
 20
-101.6405256686754
 30
0.0
 11
93.34373025742671
 21
-101.6405256686754
 31
0.0
  0
ARC
  5
630
330
1F
100
AcDbEntity
  8
SK6
  6
CONTINUOUS
370
25
 62
5
100
AcDbCircle
 10
91.27276112877257
 20
-98.45418994373459
 30
0.0
 40
3.800216899582478
100
AcDbArc
 50
303.0219828477958
 51
326.3732153033475
  0
LINE
  5
631
330
1F
100
AcDbEntity
  8
SK6
  6
CONTINUOUS
370
25
 62
5
100
AcDbLine
 10
94.43705904135723
 20
-100.5586773407709
 30
0.0
 11
91.07976099575463
 21
-100.5586773407709
 31
0.0
  0
LINE
  5
632
330
1F
100
AcDbEntity
  8
SK6
  6
CONTINUOUS
370
25
 62
5
100
AcDbLine
 10
91.07976099575463
 20
-100.5586773407709
 30
0.0
 11
94.99962038771987
 21
-99.19727614641694
 31
0.0
  0
ARC
  5
633
330
1F
100
AcDbEntity
  8
SK6
  6
CONTINUOUS
370
25
 62
5
100
AcDbCircle
 10
91.27276185157211
 20
-98.4541904548594
 30
0.0
 40
3.800217216614724
100
AcDbArc
 50
348.7238644184695
 51
53.46910512608847
  0
LINE
  5
634
330
1F
100
AcDbEntity
  8
SK6
  6
CONTINUOUS
370
25
 62
5
100
AcDbLine
 10
93.53486453538545
 20
-95.40057909429967
 30
0.0
 11
91.33744976882737
 21
-99.85766758507057
 31
0.0
  0
ENDSEC
  0
SECTION
  2
OBJECTS
  0
DICTIONARY
  5
C
330
0
100
AcDbDictionary
  3
ACAD_GROUP
350
D
  3
ACAD_LAYOUT
350
1A
  3
ACAD_MATERIAL
350
3B
  3
ACAD_MLEADERSTYLE
350
657
  3
ACAD_MLINESTYLE
350
17
  3
ACAD_PLOTSETTINGS
350
19
  3
ACAD_SCALELIST
350
CC
  3
ACAD_VISUALSTYLE
350
2A
  3
ACDBHEADERROUNDTRIPXREC
350
635
  3
ACDBVARIABLEDICTIONARY
350
655
  0
DICTIONARY
  5
D
102
{ACAD_REACTORS
330
C
102
}
330
C
100
AcDbDictionary
  0
DICTIONARY
  5
1A
102
{ACAD_REACTORS
330
C
102
}
330
C
100
AcDbDictionary
  0
DICTIONARY
  5
3B
102
{ACAD_REACTORS
330
C
102
}
330
C
100
AcDbDictionary
  3
BYBLOCK
350
3D
  3
BYLAYER
350
3C
  3
GLOBAL
350
3E
  0
DICTIONARY
  5
657
102
{ACAD_REACTORS
330
C
102
}
330
C
100
AcDbDictionary
  0
DICTIONARY
  5
17
102
{ACAD_REACTORS
330
C
102
}
330
C
100
AcDbDictionary
  3
STANDARD
350
18
  0
DICTIONARY
  5
19
102
{ACAD_REACTORS
330
C
102
}
330
C
100
AcDbDictionary
  0
DICTIONARY
  5
CC
102
{ACAD_REACTORS
330
C
102
}
330
C
100
AcDbDictionary
  3
A0
350
CD
  3
A1
350
CE
  3
A2
350
CF
  3
A3
350
D0
  3
A4
350
D1
  3
A5
350
D2
  3
A6
350
D3
  3
A7
350
D4
  3
A8
350
D5
  3
A9
350
D6
  3
B0
350
D7
  3
B1
350
D8
  3
B2
350
D9
  3
B3
350
DA
  3
B4
350
DB
  3
B5
350
DC
  3
B6
350
DD
  3
B7
350
DE
  3
B8
350
DF
  3
B9
350
E0
  3
C0
350
E1
  3
C1
350
E2
  3
C2
350
E3
  3
C3
350
E4
  3
C4
350
E5
  3
C5
350
E6
  3
C6
350
E7
  3
C7
350
E8
  3
C8
350
E9
  3
C9
350
EA
  3
D0
350
EB
  3
D1
350
EC
  3
D2
350
ED
  0
DICTIONARY
  5
2A
102
{ACAD_REACTORS
330
C
102
}
330
C
100
AcDbDictionary
  3
2DWIREFRAME
350
2F
  3
3D_HIDDEN
350
31
  3
3DWIREFRAME
350
30
  3
BASIC
350
32
  3
BRIGHTEN
350
36
  3
COLORCHANGE
350
3A
  3
CONCEPTUAL
350
34
  3
DIM
350
35
  3
FACEPATTERN
350
39
  3
FLAT
350
2B
  3
FLATWITHEDGES
350
2C
  3
GOURAUD
350
2D
  3
GOURAUDWITHEDGES
350
2E
  3
LINEPATTERN
350
38
  3
REALISTIC
350
33
  3
THICKEN
350
37
  0
DICTIONARY
  5
635
102
{ACAD_REACTORS
330
C
102
}
330
C
100
AcDbDictionary
  3
CEPSNTYPE
350
63E
  3
DIMSTYLEDATA
350
654
  3
FINGERPRINTGUID
350
63F
  3
HYPERLINKBASE
350
638
  3
INSUNITS
350
63D
  3
LAYOUTDICT
350
63A
  3
LWETCUNION
350
63C
  3
PLOTSETDICT
350
63B
  3
PSVPSCALE
350
641
  3
PUCSBASE
350
644
  3
PUCSORGBACK
350
64A
  3
PUCSORGBOTTOM
350
646
  3
PUCSORGFRONT
350
649
  3
PUCSORGLEFT
350
647
  3
PUCSORGRIGHT
350
648
  3
PUCSORGTOP
350
645
  3
PUCSORTHOREF
350
642
  3
PUCSORTHOVIEW
350
643
  3
STYLESHEET
350
639
  3
TSTACKALIGN
350
636
  3
TSTACKSIZE
350
637
  3
UCSBASE
350
64D
  3
UCSORGBACK
350
653
  3
UCSORGBOTTOM
350
64F
  3
UCSORGFRONT
350
652
  3
UCSORGLEFT
350
650
  3
UCSORGRIGHT
350
651
  3
UCSORGTOP
350
64E
  3
UCSORTHOREF
350
64B
  3
UCSORTHOVIEW
350
64C
  3
VERSIONGUID
350
640
  0
DICTIONARY
  5
655
102
{ACAD_REACTORS
330
C
102
}
330
C
100
AcDbDictionary
  3
CANNOSCALE
350
65A
  3
DIMASSOC
350
65B
  3
HIDETEXT
350
65C
  3
PSOLHEIGHT
350
659
  3
PSOLWIDTH
350
658
  0
MATERIAL
  5
3D
102
{ACAD_REACTORS
330
3B
102
}
102
{ACAD_XDICTIONARY
360
65F
102
}
330
3B
100
AcDbMaterial
  1
ByBlock
  0
MATERIAL
  5
3C
102
{ACAD_REACTORS
330
3B
102
}
102
{ACAD_XDICTIONARY
360
65D
102
}
330
3B
100
AcDbMaterial
  1
ByLayer
  0
MATERIAL
  5
3E
102
{ACAD_REACTORS
330
3B
102
}
102
{ACAD_XDICTIONARY
360
661
102
}
330
3B
100
AcDbMaterial
  1
Global
  0
MLINESTYLE
  5
18
102
{ACAD_REACTORS
330
17
102
}
330
17
100
AcDbMlineStyle
  2
Standard
 70
     0
  3

 62
   256
 51
90.0
 52
90.0
 71
     2
 49
0.5
 62
   256
  6
BYLAYER
 49
-0.5
 62
   256
  6
BYLAYER
  0
ACAD_PROXY_OBJECT
  5
CD
102
{ACAD_REACTORS
330
CC
102
}
330
CC
100
AcDbProxyObject
 90
      499
 91
      503
 93
       41
310
903313A31580
  0
ACAD_PROXY_OBJECT
  5
CE
102
{ACAD_REACTORS
330
CC
102
}
330
CC
100
AcDbProxyObject
 90
      499
 91
      503
 93
      105
310
903313A324000000000000004000
  0
ACAD_PROXY_OBJECT
  5
CF
102
{ACAD_REACTORS
330
CC
102
}
330
CC
100
AcDbProxyObject
 90
      499
 91
      503
 93
      105
310
903313A344000000000000104000
  0
ACAD_PROXY_OBJECT
  5
D0
102
{ACAD_REACTORS
330
CC
102
}
330
CC
100
AcDbProxyObject
 90
      499
 91
      503
 93
      105
310
903313A354000000000000144000
  0
ACAD_PROXY_OBJECT
  5
D1
102
{ACAD_REACTORS
330
CC
102
}
330
CC
100
AcDbProxyObject
 90
      499
 91
      503
 93
      105
310
903313A384000000000000204000
  0
ACAD_PROXY_OBJECT
  5
D2
102
{ACAD_REACTORS
330
CC
102
}
330
CC
100
AcDbProxyObject
 90
      499
 91
      503
 93
      113
310
904313A31304000000000000244000
  0
ACAD_PROXY_OBJECT
  5
D3
102
{ACAD_REACTORS
330
CC
102
}
330
CC
100
AcDbProxyObject
 90
      499
 91
      503
 93
      113
310
904313A31364000000000000304000
  0
ACAD_PROXY_OBJECT
  5
D4
102
{ACAD_REACTORS
330
CC
102
}
330
CC
100
AcDbProxyObject
 90
      499
 91
      503
 93
      113
310
904313A32304000000000000344000
  0
ACAD_PROXY_OBJECT
  5
D5
102
{ACAD_REACTORS
330
CC
102
}
330
CC
100
AcDbProxyObject
 90
      499
 91
      503
 93
      113
310
904313A333040000000000003E4000
  0
ACAD_PROXY_OBJECT
  5
D6
102
{ACAD_REACTORS
330
CC
102
}
330
CC
100
AcDbProxyObject
 90
      499
 91
      503
 93
      113
310
904313A34304000000000000444000
  0
ACAD_PROXY_OBJECT
  5
D7
102
{ACAD_REACTORS
330
CC
102
}
330
CC
100
AcDbProxyObject
 90
      499
 91
      503
 93
      113
310
904313A35304000000000000494000
  0
ACAD_PROXY_OBJECT
  5
D8
102
{ACAD_REACTORS
330
CC
102
}
330
CC
100
AcDbProxyObject
 90
      499
 91
      503
 93
      121
310
905313A3130304000000000000594000
  0
ACAD_PROXY_OBJECT
  5
D9
102
{ACAD_REACTORS
330
CC
102
}
330
CC
100
AcDbProxyObject
 90
      499
 91
      503
 93
      105
310
903323A310000000000000010100
  0
ACAD_PROXY_OBJECT
  5
DA
102
{ACAD_REACTORS
330
CC
102
}
330
CC
100
AcDbProxyObject
 90
      499
 91
      503
 93
      105
310
903343A310000000000000410100
  0
ACAD_PROXY_OBJECT
  5
DB
102
{ACAD_REACTORS
330
CC
102
}
330
CC
100
AcDbProxyObject
 90
      499
 91
      503
 93
      105
310
903383A310000000000000810100
  0
ACAD_PROXY_OBJECT
  5
DC
102
{ACAD_REACTORS
330
CC
102
}
330
CC
100
AcDbProxyObject
 90
      499
 91
      503
 93
      113
310
90431303A310000000000000910100
  0
ACAD_PROXY_OBJECT
  5
DD
102
{ACAD_REACTORS
330
CC
102
}
330
CC
100
AcDbProxyObject
 90
      499
 91
      503
 93
      121
310
9053130303A310000000000001650100
  0
ACAD_PROXY_OBJECT
  5
DE
102
{ACAD_REACTORS
330
CC
102
}
330
CC
100
AcDbProxyObject
 90
      499
 91
      503
 93
      257
310
90E312F31323822203D2031272D3022000000000000200FC000000000000284000
  0
ACAD_PROXY_OBJECT
  5
DF
102
{ACAD_REACTORS
330
CC
102
}
330
CC
100
AcDbProxyObject
 90
      499
 91
      503
 93
      249
310
90D312F363422203D2031272D3022000000000000240FC000000000000284000
  0
ACAD_PROXY_OBJECT
  5
E0
102
{ACAD_REACTORS
330
CC
102
}
330
CC
100
AcDbProxyObject
 90
      499
 91
      503
 93
      249
310
90D312F333222203D2031272D3022000000000000280FC000000000000284000
  0
ACAD_PROXY_OBJECT
  5
E1
102
{ACAD_REACTORS
330
CC
102
}
330
CC
100
AcDbProxyObject
 90
      499
 91
      503
 93
      249
310
90D312F313622203D2031272D30220000000000002C0FC000000000000284000
  0
ACAD_PROXY_OBJECT
  5
E2
102
{ACAD_REACTORS
330
CC
102
}
330
CC
100
AcDbProxyObject
 90
      499
 91
      503
 93
      249
310
90D332F333222203D2031272D30220000000000002E0FC000000000000284000
  0
ACAD_PROXY_OBJECT
  5
E3
102
{ACAD_REACTORS
330
CC
102
}
330
CC
100
AcDbProxyObject
 90
      499
 91
      503
 93
      241
310
90C312F3822203D2031272D3022000000000000300FC000000000000284000
  0
ACAD_PROXY_OBJECT
  5
E4
102
{ACAD_REACTORS
330
CC
102
}
330
CC
100
AcDbProxyObject
 90
      499
 91
      503
 93
      249
310
90D332F313622203D2031272D3022000000000000320FC000000000000284000
  0
ACAD_PROXY_OBJECT
  5
E5
102
{ACAD_REACTORS
330
CC
102
}
330
CC
100
AcDbProxyObject
 90
      499
 91
      503
 93
      241
310
90C312F3422203D2031272D3022000000000000340FC000000000000284000
  0
ACAD_PROXY_OBJECT
  5
E6
102
{ACAD_REACTORS
330
CC
102
}
330
CC
100
AcDbProxyObject
 90
      499
 91
      503
 93
      241
310
90C332F3822203D2031272D3022000000000000360FC000000000000284000
  0
ACAD_PROXY_OBJECT
  5
E7
102
{ACAD_REACTORS
330
CC
102
}
330
CC
100
AcDbProxyObject
 90
      499
 91
      503
 93
      241
310
90C312F3222203D2031272D3022000000000000380FC000000000000284000
  0
ACAD_PROXY_OBJECT
  5
E8
102
{ACAD_REACTORS
330
CC
102
}
330
CC
100
AcDbProxyObject
 90
      499
 91
      503
 93
      241
310
90C332F3422203D2031272D30220000000000003A0FC000000000000284000
  0
ACAD_PROXY_OBJECT
  5
E9
102
{ACAD_REACTORS
330
CC
102
}
330
CC
100
AcDbProxyObject
 90
      499
 91
      503
 93
      161
310
90A3122203D2031272D30224000000000000284000
  0
ACAD_PROXY_OBJECT
  5
EA
102
{ACAD_REACTORS
330
CC
102
}
330
CC
100
AcDbProxyObject
 90
      499
 91
      503
 93
      257
310
90E312D312F3222203D2031272D30220000000000003E0FC000000000000284000
  0
ACAD_PROXY_OBJECT
  5
EB
102
{ACAD_REACTORS
330
CC
102
}
330
CC
100
AcDbProxyObject
 90
      499
 91
      503
 93
      225
310
90A3322203D2031272D302200000000000002100000000000000284000
  0
ACAD_PROXY_OBJECT
  5
EC
102
{ACAD_REACTORS
330
CC
102
}
330
CC
100
AcDbProxyObject
 90
      499
 91
      503
 93
      225
310
90A3622203D2031272D302200000000000006100000000000000284000
  0
ACAD_PROXY_OBJECT
  5
ED
102
{ACAD_REACTORS
330
CC
102
}
330
CC
100
AcDbProxyObject
 90
      499
 91
      503
 93
      249
310
90D31272D3022203D2031272D30220000000000000A100000000000000284000
  0
ACAD_PROXY_OBJECT
  5
2F
102
{ACAD_REACTORS
330
2A
102
}
330
2A
100
AcDbProxyObject
 90
      499
 91
      501
 93
      436
310
42CC9915DA5C99599C985B595049028333333333333E3BF0000000000000FB0107901411070040501600405405064090741402480A0340
1001
ACAD
1000
AcDbSavedByObjectVersion
1070
     0
  0
ACAD_PROXY_OBJECT
  5
31
102
{ACAD_REACTORS
330
2A
102
}
330
2A
100
AcDbProxyObject
 90
      499
 91
      501
 93
      500
310
424CD108121A5919195B90640502408333333333333E3BF0000000000000FB01079024090700405020000000000001110200405405064090740C02480A0340
1001
ACAD
1000
AcDbSavedByObjectVersion
1070
     0
  0
ACAD_PROXY_OBJECT
  5
30
102
{ACAD_REACTORS
330
2A
102
}
330
2A
100
AcDbProxyObject
 90
      499
 91
      501
 93
      436
310
42CCD915DA5C99599C985B595059028333333333333E3BF0000000000000FB0107901411070040501600405405064090741402480A0340
1001
ACAD
1000
AcDbSavedByObjectVersion
1070
     0
  0
ACAD_PROXY_OBJECT
  5
32
102
{ACAD_REACTORS
330
2A
102
}
330
2A
100
AcDbProxyObject
 90
      499
 91
      501
 93
      388
310
4150985CDA58D07406404333333333333E3BF0000000000000FB0107A41107004050150841D405064090741402480A0350
1001
ACAD
1000
AcDbSavedByObjectVersion
1070
     0
  0
ACAD_PROXY_OBJECT
  5
36
102
{ACAD_REACTORS
330
2A
102
}
330
2A
100
AcDbProxyObject
 90
      499
 91
      501
 93
      428
310
42109C9A59DA1D195B90C409028333333333333E3BF0000000000000FB010790141107004050150841D405064090741402480A029950
1001
ACAD
1000
AcDbSavedByObjectVersion
1070
     0
  0
ACAD_PROXY_OBJECT
  5
3A
102
{ACAD_REACTORS
330
2A
102
}
330
2A
100
AcDbProxyObject
 90
      499
 91
      501
 93
      452
310
42D0DBDB1BDC90DA185B99D95104090240C333333333333E3BF0000000000000FB0108901411070040501508421405064090741402480A0350
1001
ACAD
1000
AcDbSavedByObjectVersion
1070
     0
  0
ACAD_PROXY_OBJECT
  5
34
102
{ACAD_REACTORS
330
2A
102
}
330
2A
100
AcDbProxyObject
 90
      499
 91
      501
 93
      500
310
4290DBDB98D95C1D1D585B10940D028333333333333E3BF0000000000000FB0107902409070040501000000000000111010841D405064090740C02480A0340
1001
ACAD
1000
AcDbSavedByObjectVersion
1070
     0
  0
ACAD_PROXY_OBJECT
  5
35
102
{ACAD_REACTORS
330
2A
102
}
330
2A
100
AcDbProxyObject
 90
      499
 91
      501
 93
      412
310
40D11A5B50B409028333333333333E3BF0000000000000FB010790141107004050150841D405064090741402480A02677FFFFFD0
1001
ACAD
1000
AcDbSavedByObjectVersion
1070
     0
  0
ACAD_PROXY_OBJECT
  5
39
102
{ACAD_REACTORS
330
2A
102
}
330
2A
100
AcDbProxyObject
 90
      499
 91
      501
 93
      444
310
42D19858D95C185D1D195C9B90F409028333333333333E3BF0000000000000FB010790141107004050150841D405064090741402480A0350
1001
ACAD
1000
AcDbSavedByObjectVersion
1070
     0
  0
ACAD_PROXY_OBJECT
  5
2B
102
{ACAD_REACTORS
330
2A
102
}
330
2A
100
AcDbProxyObject
 90
      499
 91
      501
 93
      388
310
41119B185D240901404333333333333E3BF0000000000000F9010740A41107004050150841D405064090741402480A1B50
1001
ACAD
1000
AcDbSavedByObjectVersion
1070
     0
  0
ACAD_PROXY_OBJECT
  5
2C
102
{ACAD_REACTORS
330
2A
102
}
330
2A
100
AcDbProxyObject
 90
      499
 91
      501
 93
      476
310
43519B185D15DA5D1A115919D95CD0140901404333333333333E3BF0000000000000F9010740901411070040501600405405064090741402480A1B50
1001
ACAD
1000
AcDbSavedByObjectVersion
1070
     0
  0
ACAD_PROXY_OBJECT
  5
2D
102
{ACAD_REACTORS
330
2A
102
}
330
2A
100
AcDbProxyObject
 90
      499
 91
      501
 93
      412
310
41D1DBDD5C985D5910240902404333333333333E3BF0000000000000F9010740A411070040501641D405064090741402480A1B50
1001
ACAD
1000
AcDbSavedByObjectVersion
1070
     0
  0
ACAD_PROXY_OBJECT
  5
2E
102
{ACAD_REACTORS
330
2A
102
}
330
2A
100
AcDbProxyObject
 90
      499
 91
      501
 93
      500
310
4411DBDD5C985D5915DA5D1A115919D95CD0340902404333333333333E3BF0000000000000F9010740901411070040501600405405064090741402480A1B50
1001
ACAD
1000
AcDbSavedByObjectVersion
1070
     0
  0
ACAD_PROXY_OBJECT
  5
38
102
{ACAD_REACTORS
330
2A
102
}
330
2A
100
AcDbProxyObject
 90
      499
 91
      501
 93
      444
310
42D31A5B995C185D1D195C9B90E409028333333333333E3BF0000000000000FB010790141107004050750841D405064090741402483A0350
1001
ACAD
1000
AcDbSavedByObjectVersion
1070
     0
  0
ACAD_PROXY_OBJECT
  5
33
102
{ACAD_REACTORS
330
2A
102
}
330
2A
100
AcDbProxyObject
 90
      499
 91
      501
 93
      420
310
425499585B1A5CDD1A58D08409028333333333333E3BF0000000000000FB01079019070040501508421405064090741402480A1B40
1001
ACAD
1000
AcDbSavedByObjectVersion
1070
     0
  0
ACAD_PROXY_OBJECT
  5
37
102
{ACAD_REACTORS
330
2A
102
}
330
2A
100
AcDbProxyObject
 90
      499
 91
      501
 93
      412
310
41D51A1A58DAD95B90D409028333333333333E3BF0000000000000FB010790141107004050150C41D405064090741402480A0350
1001
ACAD
1000
AcDbSavedByObjectVersion
1070
     0
  0
XRECORD
  5
63E
102
{ACAD_REACTORS
330
635
102
}
330
635
100
AcDbXrecord
 90
        0
  0
XRECORD
  5
654
102
{ACAD_REACTORS
330
635
102
}
330
635
100
AcDbXrecord
1000
DSTYLE
1002
{
1070
   340
340
11
1002
}
  0
XRECORD
  5
63F
102
{ACAD_REACTORS
330
635
102
}
330
635
100
AcDbXrecord
  1
{87CF1A3C-373C-4F52-8C36-E29606EA9EFD}
  0
XRECORD
  5
638
102
{ACAD_REACTORS
330
635
102
}
330
635
100
AcDbXrecord
  1

  0
XRECORD
  5
63D
102
{ACAD_REACTORS
330
635
102
}
330
635
100
AcDbXrecord
 90
        4
  0
XRECORD
  5
63A
102
{ACAD_REACTORS
330
635
102
}
330
635
100
AcDbXrecord
340
1A
  0
XRECORD
  5
63C
102
{ACAD_REACTORS
330
635
102
}
330
635
100
AcDbXrecord
 90
    10781
  0
XRECORD
  5
63B
102
{ACAD_REACTORS
330
635
102
}
330
635
100
AcDbXrecord
340
19
  0
XRECORD
  5
641
102
{ACAD_REACTORS
330
635
102
}
330
635
100
AcDbXrecord
 40
0.0
  0
XRECORD
  5
644
102
{ACAD_REACTORS
330
635
102
}
330
635
100
AcDbXrecord
340
0
  0
XRECORD
  5
64A
102
{ACAD_REACTORS
330
635
102
}
330
635
100
AcDbXrecord
 10
0.0
 20
0.0
 30
0.0
  0
XRECORD
  5
646
102
{ACAD_REACTORS
330
635
102
}
330
635
100
AcDbXrecord
 10
0.0
 20
0.0
 30
0.0
  0
XRECORD
  5
649
102
{ACAD_REACTORS
330
635
102
}
330
635
100
AcDbXrecord
 10
0.0
 20
0.0
 30
0.0
  0
XRECORD
  5
647
102
{ACAD_REACTORS
330
635
102
}
330
635
100
AcDbXrecord
 10
0.0
 20
0.0
 30
0.0
  0
XRECORD
  5
648
102
{ACAD_REACTORS
330
635
102
}
330
635
100
AcDbXrecord
 10
0.0
 20
0.0
 30
0.0
  0
XRECORD
  5
645
102
{ACAD_REACTORS
330
635
102
}
330
635
100
AcDbXrecord
 10
0.0
 20
0.0
 30
0.0
  0
XRECORD
  5
642
102
{ACAD_REACTORS
330
635
102
}
330
635
100
AcDbXrecord
340
0
  0
XRECORD
  5
643
102
{ACAD_REACTORS
330
635
102
}
330
635
100
AcDbXrecord
 70
     0
  0
XRECORD
  5
639
102
{ACAD_REACTORS
330
635
102
}
330
635
100
AcDbXrecord
  1

  0
XRECORD
  5
636
102
{ACAD_REACTORS
330
635
102
}
330
635
100
AcDbXrecord
 90
        1
  0
XRECORD
  5
637
102
{ACAD_REACTORS
330
635
102
}
330
635
100
AcDbXrecord
 90
       70
  0
XRECORD
  5
64D
102
{ACAD_REACTORS
330
635
102
}
330
635
100
AcDbXrecord
340
0
  0
XRECORD
  5
653
102
{ACAD_REACTORS
330
635
102
}
330
635
100
AcDbXrecord
 10
0.0
 20
0.0
 30
0.0
  0
XRECORD
  5
64F
102
{ACAD_REACTORS
330
635
102
}
330
635
100
AcDbXrecord
 10
0.0
 20
0.0
 30
0.0
  0
XRECORD
  5
652
102
{ACAD_REACTORS
330
635
102
}
330
635
100
AcDbXrecord
 10
0.0
 20
0.0
 30
0.0
  0
XRECORD
  5
650
102
{ACAD_REACTORS
330
635
102
}
330
635
100
AcDbXrecord
 10
0.0
 20
0.0
 30
0.0
  0
XRECORD
  5
651
102
{ACAD_REACTORS
330
635
102
}
330
635
100
AcDbXrecord
 10
0.0
 20
0.0
 30
0.0
  0
XRECORD
  5
64E
102
{ACAD_REACTORS
330
635
102
}
330
635
100
AcDbXrecord
 10
0.0
 20
0.0
 30
0.0
  0
XRECORD
  5
64B
102
{ACAD_REACTORS
330
635
102
}
330
635
100
AcDbXrecord
340
0
  0
XRECORD
  5
64C
102
{ACAD_REACTORS
330
635
102
}
330
635
100
AcDbXrecord
 70
     0
  0
XRECORD
  5
640
102
{ACAD_REACTORS
330
635
102
}
330
635
100
AcDbXrecord
  1
{FAEB1C32-E019-11D5-929B-00C0DF256EC4}
  0
DICTIONARYVAR
  5
65A
102
{ACAD_REACTORS
330
655
102
}
330
655
100
DictionaryVariables
280
     0
  1
1:1
  0
DICTIONARYVAR
  5
65B
102
{ACAD_REACTORS
330
655
102
}
330
655
100
DictionaryVariables
280
     0
  1
2
  0
DICTIONARYVAR
  5
65C
102
{ACAD_REACTORS
330
655
102
}
330
655
100
DictionaryVariables
280
     0
  1
1
  0
DICTIONARYVAR
  5
659
102
{ACAD_REACTORS
330
655
102
}
330
655
100
DictionaryVariables
280
     0
  1
80.000000
  0
DICTIONARYVAR
  5
658
102
{ACAD_REACTORS
330
655
102
}
330
655
100
DictionaryVariables
280
     0
  1
5.000000
  0
DICTIONARY
  5
65F
330
3D
100
AcDbDictionary
280
     1
  3
ACAD_XREC_ROUNDTRIP
360
660
  0
DICTIONARY
  5
65D
330
3C
100
AcDbDictionary
280
     1
  3
ACAD_XREC_ROUNDTRIP
360
65E
  0
DICTIONARY
  5
661
330
3E
100
AcDbDictionary
280
     1
  3
ACAD_XREC_ROUNDTRIP
360
662
  0
XRECORD
  5
660
102
{ACAD_REACTORS
330
65F
102
}
330
65F
100
AcDbXrecord
102
MATERIAL
148
0.0
149
0.0
149
0.0
 93
        0
 94
      127
282
     0
 72
     1
 77
     1
171
     1
175
     1
179
     1
273
     0
  0
XRECORD
  5
65E
102
{ACAD_REACTORS
330
65D
102
}
330
65D
100
AcDbXrecord
102
MATERIAL
148
0.0
149
0.0
149
0.0
 93
        0
 94
      127
282
     0
 72
     1
 77
     1
171
     1
175
     1
179
     1
273
     0
  0
XRECORD
  5
662
102
{ACAD_REACTORS
330
661
102
}
330
661
100
AcDbXrecord
102
MATERIAL
148
0.0
149
0.0
149
0.0
 93
        0
 94
      127
282
     0
 72
     1
 77
     1
171
     1
175
     1
179
     1
273
     0
  0
ENDSEC
  0
EOF
