  0
SECTION
  2
HEADER
  9
$ACADVER
  1
AC1014
  9
$ACADMAINTVER
 70
     9
  9
$DWGCODEPAGE
  3
ANSI_1252
  9
$INSBASE
 10
0.0
 20
0.0
 30
0.0
  9
$EXTMIN
 10
0.0
 20
0.0
 30
0.0
  9
$EXTMAX
 10
25.0
 20
35.0
 30
0.0
  9
$LIMMIN
 10
0.0
 20
0.0
  9
$LIMMAX
 10
420.0
 20
297.0
  9
$ORTHOMODE
 70
     0
  9
$REGENMODE
 70
     1
  9
$FILLMODE
 70
     1
  9
$QTEXTMODE
 70
     0
  9
$MIRRTEXT
 70
     1
  9
$DRAGMODE
 70
     2
  9
$LTSCALE
 40
7.4
  9
$OSMODE
 70
    37
  9
$ATTMODE
 70
     1
  9
$TEXTSIZE
 40
2.5
  9
$TRACEWID
 40
1.0
  9
$TEXTSTYLE
  7
STANDARD
  9
$CLAYER
  8
0
  9
$CELTYPE
  6
BYLAYER
  9
$CECOLOR
 62
   256
  9
$CELTSCALE
 40
1.0
  9
$DELOBJ
 70
     1
  9
$DISPSILH
 70
     0
  9
$DIMSCALE
 40
1.0
  9
$DIMASZ
 40
2.5
  9
$DIMEXO
 40
0.625
  9
$DIMDLI
 40
3.75
  9
$DIMRND
 40
0.0
  9
$DIMDLE
 40
0.0
  9
$DIMEXE
 40
1.25
  9
$DIMTP
 40
0.0
  9
$DIMTM
 40
0.0
  9
$DIMTXT
 40
2.5
  9
$DIMCEN
 40
2.5
  9
$DIMTSZ
 40
0.0
  9
$DIMTOL
 70
     0
  9
$DIMLIM
 70
     0
  9
$DIMTIH
 70
     0
  9
$DIMTOH
 70
     0
  9
$DIMSE1
 70
     0
  9
$DIMSE2
 70
     0
  9
$DIMTAD
 70
     1
  9
$DIMZIN
 70
     8
  9
$DIMBLK
  1

  9
$DIMASO
 70
     1
  9
$DIMSHO
 70
     1
  9
$DIMPOST
  1

  9
$DIMAPOST
  1

  9
$DIMALT
 70
     0
  9
$DIMALTD
 70
     3
  9
$DIMALTF
 40
0.03937007874016
  9
$DIMLFAC
 40
1.0
  9
$DIMTOFL
 70
     1
  9
$DIMTVP
 40
0.0
  9
$DIMTIX
 70
     0
  9
$DIMSOXD
 70
     0
  9
$DIMSAH
 70
     0
  9
$DIMBLK1
  1

  9
$DIMBLK2
  1

  9
$DIMSTYLE
  2
ISO-25
  9
$DIMCLRD
 70
     0
  9
$DIMCLRE
 70
     0
  9
$DIMCLRT
 70
     0
  9
$DIMTFAC
 40
1.0
  9
$DIMGAP
 40
0.625
  9
$DIMJUST
 70
     0
  9
$DIMSD1
 70
     0
  9
$DIMSD2
 70
     0
  9
$DIMTOLJ
 70
     0
  9
$DIMTZIN
 70
     8
  9
$DIMALTZ
 70
     0
  9
$DIMALTTZ
 70
     0
  9
$DIMFIT
 70
     3
  9
$DIMUPT
 70
     0
  9
$DIMUNIT
 70
     2
  9
$DIMDEC
 70
     2
  9
$DIMTDEC
 70
     2
  9
$DIMALTU
 70
     2
  9
$DIMALTTD
 70
     3
  9
$DIMTXSTY
  7
STANDARD
  9
$DIMAUNIT
 70
     0
  9
$LUNITS
 70
     2
  9
$LUPREC
 70
     4
  9
$SKETCHINC
 40
1.0
  9
$FILLETRAD
 40
10.0
  9
$AUNITS
 70
     0
  9
$AUPREC
 70
     0
  9
$MENU
  1
.
  9
$ELEVATION
 40
0.0
  9
$PELEVATION
 40
0.0
  9
$THICKNESS
 40
0.0
  9
$LIMCHECK
 70
     0
  9
$CHAMFERA
 40
10.0
  9
$CHAMFERB
 40
10.0
  9
$CHAMFERC
 40
20.0
  9
$CHAMFERD
 40
0.0
  9
$SKPOLY
 70
     0
  9
$TDCREATE
 40
2459072.666666667
  9
$TDUPDATE
 40
2459072.670138889
  9
$TDINDWG
 40
0.0000000116
  9
$TDUSRTIMER
 40
0.0000000116
  9
$USRTIMER
 70
     1
  9
$ANGBASE
 50
0.0
  9
$ANGDIR
 70
     0
  9
$PDMODE
 70
     0
  9
$PDSIZE
 40
0.0
  9
$PLINEWID
 40
0.0
  9
$COORDS
 70
     1
  9
$SPLFRAME
 70
     0
  9
$SPLINETYPE
 70
     6
  9
$SPLINESEGS
 70
     8
  9
$ATTDIA
 70
     0
  9
$ATTREQ
 70
     1
  9
$HANDLING
 70
     1
  9
$HANDSEED
  5
661
  9
$SURFTAB1
 70
     6
  9
$SURFTAB2
 70
     6
  9
$SURFTYPE
 70
     6
  9
$SURFU
 70
     6
  9
$SURFV
 70
     6
  9
$UCSNAME
  2

  9
$UCSORG
 10
0.0
 20
0.0
 30
0.0
  9
$UCSXDIR
 10
1.0
 20
0.0
 30
0.0
  9
$UCSYDIR
 10
0.0
 20
1.0
 30
0.0
  9
$PUCSNAME
  2

  9
$PUCSORG
 10
0.0
 20
0.0
 30
0.0
  9
$PUCSXDIR
 10
1.0
 20
0.0
 30
0.0
  9
$PUCSYDIR
 10
0.0
 20
1.0
 30
0.0
  9
$USERI1
 70
     0
  9
$USERI2
 70
     0
  9
$USERI3
 70
     0
  9
$USERI4
 70
     0
  9
$USERI5
 70
     0
  9
$USERR1
 40
0.0
  9
$USERR2
 40
0.0
  9
$USERR3
 40
0.0
  9
$USERR4
 40
0.0
  9
$USERR5
 40
0.0
  9
$WORLDVIEW
 70
     1
  9
$SHADEDGE
 70
     3
  9
$SHADEDIF
 70
    70
  9
$TILEMODE
 70
     1
  9
$MAXACTVP
 70
    64
  9
$PINSBASE
 10
0.0
 20
0.0
 30
0.0
  9
$PLIMCHECK
 70
     0
  9
$PEXTMIN
 10
1.000000000000000E+20
 20
1.000000000000000E+20
 30
1.000000000000000E+20
  9
$PEXTMAX
 10
-1.000000000000000E+20
 20
-1.000000000000000E+20
 30
-1.000000000000000E+20
  9
$PLIMMIN
 10
0.0
 20
0.0
  9
$PLIMMAX
 10
420.0
 20
297.0
  9
$UNITMODE
 70
     0
  9
$VISRETAIN
 70
     1
  9
$PLINEGEN
 70
     0
  9
$PSLTSCALE
 70
     1
  9
$TREEDEPTH
 70
  3020
  9
$PICKSTYLE
 70
     1
  9
$CMLSTYLE
  2
STANDARD
  9
$CMLJUST
 70
     0
  9
$CMLSCALE
 40
20.0
  9
$PROXYGRAPHICS
 70
     1
  9
$MEASUREMENT
 70
     1
  0
ENDSEC
  0
SECTION
  2
CLASSES
  0
CLASS
  1
ACDBDICTIONARYWDFLT
  2
AcDbDictionaryWithDefault
  3
ObjectDBX Classes
 90
        0
280
     0
281
     0
  0
CLASS
  1
VISUALSTYLE
  2
AcDbVisualStyle
  3
ObjectDBX Classes
 90
     4095
280
     0
281
     0
  0
CLASS
  1
MATERIAL
  2
AcDbMaterial
  3
ObjectDBX Classes
 90
     1153
280
     0
281
     0
  0
CLASS
  1
SCALE
  2
AcDbScale
  3
ObjectDBX Classes
 90
     1153
280
     0
281
     0
  0
CLASS
  1
DICTIONARYVAR
  2
AcDbDictionaryVar
  3
ObjectDBX Classes
 90
        0
280
     0
281
     0
  0
CLASS
  1
XRECORD
  2
AcDbXrecord
  3
AutoCAD 2000
 90
        0
280
     0
281
     0
  0
CLASS
  1
LWPOLYLINE
  2
AcDbPolyline
  3
AutoCAD 2000
 90
        0
280
     0
281
     1
  0
CLASS
  1
HATCH
  2
AcDbHatch
  3
AutoCAD 2000
 90
        0
280
     0
281
     1
  0
CLASS
  1
ACDBPLACEHOLDER
  2
AcDbPlaceHolder
  3
ObjectDBX Classes
 90
        0
280
     0
281
     0
  0
CLASS
  1
LAYOUT
  2
AcDbLayout
  3
ObjectDBX Classes
 90
        0
280
     0
281
     0
  0
ENDSEC
  0
SECTION
  2
TABLES
  0
TABLE
  2
VPORT
  5
8
330
0
100
AcDbSymbolTable
 70
     1
  0
VPORT
  5
29
330
8
100
AcDbSymbolTableRecord
100
AcDbViewportTableRecord
  2
*ACTIVE
 70
     0
 10
0.0
 20
0.0
 11
1.0
 21
1.0
 12
11.26
 22
4.5
 13
0.0
 23
0.0
 14
10.0
 24
10.0
 15
10.0
 25
10.0
 16
0.0
 26
0.0
 36
1.0
 17
0.0
 27
0.0
 37
0.0
 40
9.0
 41
2.503333333333333
 42
50.0
 43
0.0
 44
0.0
 50
0.0
 51
0.0
 71
     0
 72
   100
 73
     1
 74
     3
 75
     0
 76
     0
 77
     0
 78
     0
  0
ENDTAB
  0
TABLE
  2
LTYPE
  5
5
330
0
100
AcDbSymbolTable
 70
    11
  0
LTYPE
  5
14
330
5
100
AcDbSymbolTableRecord
100
AcDbLinetypeTableRecord
  2
BYBLOCK
 70
     0
  3

 72
    65
 73
     0
 40
0.0
  0
LTYPE
  5
15
330
5
100
AcDbSymbolTableRecord
100
AcDbLinetypeTableRecord
  2
BYLAYER
 70
     0
  3

 72
    65
 73
     0
 40
0.0
  0
LTYPE
  5
16
330
5
100
AcDbSymbolTableRecord
100
AcDbLinetypeTableRecord
  2
CONTINUOUS
 70
     0
  3
Solid line
 72
    65
 73
     0
 40
0.0
  0
LTYPE
  5
45
330
5
100
AcDbSymbolTableRecord
100
AcDbLinetypeTableRecord
  2
PHL_THICK
 70
     0
  3
THICK
 72
    65
 73
     0
 40
0.0
  0
LTYPE
  5
59
330
5
100
AcDbSymbolTableRecord
100
AcDbLinetypeTableRecord
  2
DASH
 70
     0
  3
THIN_DASHED
 72
    65
 73
     2
 40
0.75
 49
0.4
 74
     0
 49
-0.35
 74
     0
  0
LTYPE
  5
6A
330
5
100
AcDbSymbolTableRecord
100
AcDbLinetypeTableRecord
  2
CUT
 70
     0
  3
THICK
 72
    65
 73
     0
 40
0.0
  0
LTYPE
  5
74
330
5
100
AcDbSymbolTableRecord
100
AcDbLinetypeTableRecord
  2
NOCUT
 70
     0
  3
THICK
 72
    65
 73
     0
 40
0.0
  0
LTYPE
  5
87
330
5
100
AcDbSymbolTableRecord
100
AcDbLinetypeTableRecord
  2
LS_2
 70
     0
  3
THIN
 72
    65
 73
     0
 40
0.0
  0
LTYPE
  5
1FE
330
5
100
AcDbSymbolTableRecord
100
AcDbLinetypeTableRecord
  2
LS_SK2
 70
     0
  3
THIN
 72
    65
 73
     0
 40
0.0
  0
LTYPE
  5
2CB
330
5
100
AcDbSymbolTableRecord
100
AcDbLinetypeTableRecord
  2
LONGDASH_DASH
 70
     0
  3
THIN_DASHDOT
 72
    65
 73
     4
 40
0.85
 49
0.4
 74
     0
 49
-0.2
 74
     0
 49
0.05
 74
     0
 49
-0.2
 74
     0
  0
LTYPE
  5
2CE
330
5
100
AcDbSymbolTableRecord
100
AcDbLinetypeTableRecord
  2
LS_SK1
 70
     0
  3
THICK
 72
    65
 73
     0
 40
0.0
  0
LTYPE
  5
346
330
5
100
AcDbSymbolTableRecord
100
AcDbLinetypeTableRecord
  2
INFTOTAL
 70
     0
  3
THIN
 72
    65
 73
     0
 40
0.0
  0
LTYPE
  5
34C
330
5
100
AcDbSymbolTableRecord
100
AcDbLinetypeTableRecord
  2
LS1
 70
     0
  3
THICK
 72
    65
 73
     0
 40
0.0
  0
ENDTAB
  0
TABLE
  2
LAYER
  5
2
330
0
100
AcDbSymbolTable
 70
    11
  0
LAYER
  5
10
330
2
100
AcDbSymbolTableRecord
100
AcDbLayerTableRecord
  2
0
 70
     0
 62
     7
  6
CONTINUOUS
  0
LAYER
  5
44
330
2
100
AcDbSymbolTableRecord
100
AcDbLayerTableRecord
  2
1
 70
     0
 62
4
  6
CONTINUOUS
370
50
  0
LAYER
  5
58
330
2
100
AcDbSymbolTableRecord
100
AcDbLayerTableRecord
  2
SK3
 70
     0
 62
1
  6
DASH
370
35
  0
LAYER
  5
69
330
2
100
AcDbSymbolTableRecord
100
AcDbLayerTableRecord
  2
CUT
 70
     0
 62
1
  6
CONTINUOUS
370
25
  0
LAYER
  5
73
330
2
100
AcDbSymbolTableRecord
100
AcDbLayerTableRecord
  2
NOCUT
 70
     0
 62
7
  6
CONTINUOUS
370
25
  0
LAYER
  5
86
330
2
100
AcDbSymbolTableRecord
100
AcDbLayerTableRecord
  2
2
 70
     0
 62
7
  6
CONTINUOUS
370
25
  0
LAYER
  5
1FD
330
2
100
AcDbSymbolTableRecord
100
AcDbLayerTableRecord
  2
SK2
 70
     0
 62
7
  6
CONTINUOUS
370
25
  0
LAYER
  5
2CA
330
2
100
AcDbSymbolTableRecord
100
AcDbLayerTableRecord
  2
4
 70
     0
 62
2
  6
LONGDASH_DASH
370
25
  0
LAYER
  5
2CD
330
2
100
AcDbSymbolTableRecord
100
AcDbLayerTableRecord
  2
SK1
 70
     0
 62
4
  6
CONTINUOUS
370
50
  0
LAYER
  5
345
330
2
100
AcDbSymbolTableRecord
100
AcDbLayerTableRecord
  2
INFTOTAL
 70
     0
 62
9
  6
CONTINUOUS
370
18
  0
LAYER
  5
34B
330
2
100
AcDbSymbolTableRecord
100
AcDbLayerTableRecord
  2
SK6
 70
     0
 62
5
  6
CONTINUOUS
370
25
  0
ENDTAB
  0
TABLE
  2
STYLE
  5
3
330
0
100
AcDbSymbolTable
 70
     1
  0
STYLE
  5
11
330
3
100
AcDbSymbolTableRecord
100
AcDbTextStyleTableRecord
  2
STANDARD
 70
     0
 40
0.0
 41
1.0
 50
0.0
 71
     0
 42
2.5
  3
Monospac821 BT
  4

  0
ENDTAB
  0
TABLE
  2
VIEW
  5
6
330
0
100
AcDbSymbolTable
 70
     0
  0
ENDTAB
  0
TABLE
  2
UCS
  5
7
330
0
100
AcDbSymbolTable
 70
     0
  0
ENDTAB
  0
TABLE
  2
APPID
  5
9
330
0
100
AcDbSymbolTable
 70
     2
  0
APPID
  5
12
330
9
100
AcDbSymbolTableRecord
100
AcDbRegAppTableRecord
  2
ACAD
 70
     0
  0
APPID
  5
3F
330
9
100
AcDbSymbolTableRecord
100
AcDbRegAppTableRecord
  2
CCLAB
 70
     0
  0
ENDTAB
  0
TABLE
  2
DIMSTYLE
  5
A
330
0
100
AcDbSymbolTable
 70
     1
  0
DIMSTYLE
105
27
330
A
100
AcDbSymbolTableRecord
100
AcDbDimStyleTableRecord
  2
ISO-25
 70
     0
  3

  4

  5

  6

  7

 40
1.0
 41
2.5
 42
0.625
 43
3.75
 44
1.25
 45
0.0
 46
0.0
 47
0.0
 48
0.0
140
2.5
141
2.5
142
0.0
143
0.03937007874016
144
1.0
145
0.0
146
1.0
147
0.625
 71
     0
 72
     0
 73
     0
 74
     0
 75
     0
 76
     0
 77
     1
 78
     8
170
     0
171
     3
172
     1
173
     0
174
     0
175
     0
176
     0
177
     0
178
     0
270
     2
271
     2
272
     2
273
     2
274
     3
340
11
275
     0
280
     0
281
     0
282
     0
283
     0
284
     8
285
     0
286
     0
287
     3
288
     0
  0
ENDTAB
  0
TABLE
  2
BLOCK_RECORD
  5
1
330
0
100
AcDbSymbolTable
 70
     2
  0
BLOCK_RECORD
  5
1F
330
1
100
AcDbSymbolTableRecord
100
AcDbBlockTableRecord
  2
*MODEL_SPACE
  0
BLOCK_RECORD
  5
1B
330
1
100
AcDbSymbolTableRecord
100
AcDbBlockTableRecord
  2
*PAPER_SPACE
  0
ENDTAB
  0
ENDSEC
  0
SECTION
  2
BLOCKS
  0
BLOCK
  5
20
330
1F
100
AcDbEntity
  8
0
100
AcDbBlockBegin
  2
*MODEL_SPACE
 70
     0
 10
0.0
 20
0.0
 30
0.0
  3
*MODEL_SPACE
  1

  0
ENDBLK
  5
21
330
1F
100
AcDbEntity
  8
0
100
AcDbBlockEnd
  0
BLOCK
  5
1C
330
1B
100
AcDbEntity
 67
     1
  8
0
100
AcDbBlockBegin
  2
*PAPER_SPACE
 70
     0
 10
0.0
 20
0.0
 30
0.0
  3
*PAPER_SPACE
  1

  0
ENDBLK
  5
1D
330
1B
100
AcDbEntity
 67
     1
  8
0
100
AcDbBlockEnd
  0
ENDSEC
  0
SECTION
  2
ENTITIES
  0
LINE
  5
356
330
1F
100
AcDbEntity
  8
1
  6
CONTINUOUS
370
50
 62
4
100
AcDbLine
 10
40.0
 20
20.0
 30
0.0
 11
34.936039
 21
25.063961
 31
0.0
  0
LINE
  5
357
330
1F
100
AcDbEntity
  8
1
  6
CONTINUOUS
370
50
 62
4
100
AcDbLine
 10
33.63604
 20
-25.063961
 30
0.0
 11
32.222076
 21
-23.65
 31
0.0
  0
LINE
  5
358
330
1F
100
AcDbEntity
  8
1
  6
CONTINUOUS
370
50
 62
4
100
AcDbLine
 10
30.154301
 20
-23.65
 30
0.0
 11
23.79034
 21
-19.0
 31
0.0
  0
LINE
  5
359
330
1F
100
AcDbEntity
  8
1
  6
CONTINUOUS
370
50
 62
4
100
AcDbLine
 10
33.63604
 20
-25.063961
 30
0.0
 11
34.936039
 21
-25.063961
 31
0.0
  0
LINE
  5
35A
330
1F
100
AcDbEntity
  8
1
  6
CONTINUOUS
370
50
 62
4
100
AcDbLine
 10
30.154301
 20
-23.65
 30
0.0
 11
32.222076
 21
-23.65
 31
0.0
  0
LINE
  5
35B
330
1F
100
AcDbEntity
  8
1
  6
CONTINUOUS
370
50
 62
4
100
AcDbLine
 10
0.0
 20
-19.0
 30
0.0
 11
23.79034
 21
-19.0
 31
0.0
  0
LINE
  5
35C
330
1F
100
AcDbEntity
  8
1
  6
CONTINUOUS
370
50
 62
4
100
AcDbLine
 10
0.0
 20
19.0
 30
0.0
 11
23.79034
 21
19.0
 31
0.0
  0
LINE
  5
35D
330
1F
100
AcDbEntity
  8
1
  6
CONTINUOUS
370
50
 62
4
100
AcDbLine
 10
30.154301
 20
23.65
 30
0.0
 11
32.222076
 21
23.65
 31
0.0
  0
LINE
  5
35E
330
1F
100
AcDbEntity
  8
1
  6
CONTINUOUS
370
50
 62
4
100
AcDbLine
 10
33.63604
 20
25.063961
 30
0.0
 11
34.936039
 21
25.063961
 31
0.0
  0
LINE
  5
35F
330
1F
100
AcDbEntity
  8
1
  6
CONTINUOUS
370
50
 62
4
100
AcDbLine
 10
23.79034
 20
19.0
 30
0.0
 11
30.154301
 21
23.65
 31
0.0
  0
LINE
  5
360
330
1F
100
AcDbEntity
  8
1
  6
CONTINUOUS
370
50
 62
4
100
AcDbLine
 10
32.222076
 20
23.65
 30
0.0
 11
33.63604
 21
25.063961
 31
0.0
  0
LINE
  5
361
330
1F
100
AcDbEntity
  8
1
  6
CONTINUOUS
370
50
 62
4
100
AcDbLine
 10
34.936039
 20
-25.063961
 30
0.0
 11
40.0
 21
-20.0
 31
0.0
  0
LINE
  5
362
330
1F
100
AcDbEntity
  8
1
  6
CONTINUOUS
370
50
 62
4
100
AcDbLine
 10
0.0
 20
-19.0
 30
0.0
 11
0.0
 21
19.0
 31
0.0
  0
LINE
  5
363
330
1F
100
AcDbEntity
  8
1
  6
CONTINUOUS
370
50
 62
4
100
AcDbLine
 10
23.79034
 20
-19.0
 30
0.0
 11
23.79034
 21
19.0
 31
0.0
  0
LINE
  5
364
330
1F
100
AcDbEntity
  8
1
  6
CONTINUOUS
370
50
 62
4
100
AcDbLine
 10
30.154301
 20
-23.65
 30
0.0
 11
30.154301
 21
23.65
 31
0.0
  0
LINE
  5
365
330
1F
100
AcDbEntity
  8
1
  6
CONTINUOUS
370
50
 62
4
100
AcDbLine
 10
33.63604
 20
-25.063961
 30
0.0
 11
33.63604
 21
25.063961
 31
0.0
  0
LINE
  5
366
330
1F
100
AcDbEntity
  8
1
  6
CONTINUOUS
370
50
 62
4
100
AcDbLine
 10
34.936039
 20
-25.063961
 30
0.0
 11
34.936039
 21
25.063961
 31
0.0
  0
LINE
  5
367
330
1F
100
AcDbEntity
  8
1
  6
CONTINUOUS
370
50
 62
4
100
AcDbLine
 10
40.0
 20
-20.0
 30
0.0
 11
40.0
 21
20.0
 31
0.0
  0
LINE
  5
368
330
1F
100
AcDbEntity
  8
SK3
  6
DASH
370
35
 62
1
100
AcDbLine
 10
0.6
 20
19.0
 30
0.0
 11
0.6
 21
-19.0
 31
0.0
  0
LINE
  5
369
330
1F
100
AcDbEntity
  8
SK3
  6
DASH
370
35
 62
1
100
AcDbLine
 10
0.0
 20
6.80881781221968
 30
0.0
 11
4.40881781221968
 21
6.80881781221968
 31
0.0
  0
LINE
  5
36A
330
1F
100
AcDbEntity
  8
SK3
  6
DASH
370
35
 62
1
100
AcDbLine
 10
0.0
 20
-6.80881781221968
 30
0.0
 11
4.40881781221968
 21
-6.80881781221968
 31
0.0
  0
ARC
  5
36B
330
1F
100
AcDbEntity
  8
SK3
  6
DASH
370
35
 62
1
100
AcDbCircle
 10
4.40881781221968
 20
7.999999999999999
 30
0.0
 40
1.191182187780319
100
AcDbArc
 50
270.0
 51
0.0
  0
ARC
  5
36C
330
1F
100
AcDbEntity
  8
SK3
  6
DASH
370
35
 62
1
100
AcDbCircle
 10
4.40881781221968
 20
-7.999999999999999
 30
0.0
 40
1.191182187780319
100
AcDbArc
 50
0.0
 51
90.0
  0
LINE
  5
36D
330
1F
100
AcDbEntity
  8
SK3
  6
DASH
370
35
 62
1
100
AcDbLine
 10
5.6
 20
19.0
 30
0.0
 11
5.6
 21
8.0
 31
0.0
  0
LINE
  5
36E
330
1F
100
AcDbEntity
  8
SK3
  6
DASH
370
35
 62
1
100
AcDbLine
 10
5.6
 20
-19.0
 30
0.0
 11
5.6
 21
-8.0
 31
0.0
  0
LINE
  5
36F
330
1F
100
AcDbEntity
  8
SK3
  6
DASH
370
35
 62
1
100
AcDbLine
 10
5.6
 20
8.0
 30
0.0
 11
13.916
 21
8.0
 31
0.0
  0
LINE
  5
370
330
1F
100
AcDbEntity
  8
SK3
  6
DASH
370
35
 62
1
100
AcDbLine
 10
5.6
 20
-8.0
 30
0.0
 11
13.916
 21
-8.0
 31
0.0
  0
LINE
  5
371
330
1F
100
AcDbEntity
  8
SK3
  6
DASH
370
35
 62
1
100
AcDbLine
 10
13.916
 20
8.0
 30
0.0
 11
13.916
 21
-8.0
 31
0.0
  0
LINE
  5
372
330
1F
100
AcDbEntity
  8
SK3
  6
DASH
370
35
 62
1
100
AcDbLine
 10
13.916
 20
4.5
 30
0.0
 11
18.916
 21
4.5
 31
0.0
  0
LINE
  5
373
330
1F
100
AcDbEntity
  8
SK3
  6
DASH
370
35
 62
1
100
AcDbLine
 10
13.916
 20
-4.5
 30
0.0
 11
18.916
 21
-4.5
 31
0.0
  0
LINE
  5
374
330
1F
100
AcDbEntity
  8
SK3
  6
DASH
370
35
 62
1
100
AcDbLine
 10
18.916
 20
7.5
 30
0.0
 11
18.916
 21
-7.5
 31
0.0
  0
LINE
  5
375
330
1F
100
AcDbEntity
  8
SK3
  6
DASH
370
35
 62
1
100
AcDbLine
 10
18.916
 20
7.5
 30
0.0
 11
25.27733333
 21
7.5
 31
0.0
  0
LINE
  5
376
330
1F
100
AcDbEntity
  8
SK3
  6
DASH
370
35
 62
1
100
AcDbLine
 10
18.916
 20
-7.5
 30
0.0
 11
25.27733333
 21
-7.5
 31
0.0
  0
LINE
  5
377
330
1F
100
AcDbEntity
  8
CUT
  6
CONTINUOUS
370
25
 62
1
100
AcDbLine
 10
39.99999934999935
 20
20.00000065000065
 30
0.0
 11
34.93603831932042
 21
25.06396168067958
 31
0.0
  0
LINE
  5
378
330
1F
100
AcDbEntity
  8
CUT
  6
CONTINUOUS
370
25
 62
1
100
AcDbLine
 10
34.93603831932042
 20
25.06396168067958
 30
0.0
 11
33.63603831932042
 21
25.06396168067958
 31
0.0
  0
LINE
  5
379
330
1F
100
AcDbEntity
  8
CUT
  6
CONTINUOUS
370
25
 62
1
100
AcDbLine
 10
33.63603831932042
 20
25.06396168067958
 30
0.0
 11
28.57207858864279
 21
19.99999934999935
 31
0.0
  0
LINE
  5
37A
330
1F
100
AcDbEntity
  8
CUT
  6
CONTINUOUS
370
25
 62
1
100
AcDbLine
 10
28.57207858864279
 20
19.99999934999935
 30
0.0
 11
28.57207858864279
 21
18.69999934999935
 31
0.0
  0
LINE
  5
37B
330
1F
100
AcDbEntity
  8
CUT
  6
CONTINUOUS
370
25
 62
1
100
AcDbLine
 10
28.57207858864279
 20
18.69999934999935
 30
0.0
 11
33.63603961932172
 21
13.63603831932043
 31
0.0
  0
LINE
  5
37C
330
1F
100
AcDbEntity
  8
CUT
  6
CONTINUOUS
370
25
 62
1
100
AcDbLine
 10
33.63603961932172
 20
13.63603831932043
 30
0.0
 11
34.93603961932172
 21
13.63603831932042
 31
0.0
  0
LINE
  5
37D
330
1F
100
AcDbEntity
  8
CUT
  6
CONTINUOUS
370
25
 62
1
100
AcDbLine
 10
34.93603961932172
 20
13.63603831932042
 30
0.0
 11
39.99999934999935
 21
18.70000065000065
 31
0.0
  0
LINE
  5
37E
330
1F
100
AcDbEntity
  8
CUT
  6
CONTINUOUS
370
25
 62
1
100
AcDbLine
 10
39.99999934999935
 20
18.70000065000065
 30
0.0
 11
39.99999934999935
 21
20.00000065000065
 31
0.0
  0
LINE
  5
37F
330
1F
100
AcDbEntity
  8
NOCUT
  6
CONTINUOUS
370
25
 62
7
100
AcDbLine
 10
0.0
 20
0.0
 30
0.0
 11
25.27733333333333
 21
0.0
 31
0.0
  0
LINE
  5
380
330
1F
100
AcDbEntity
  8
NOCUT
  6
CONTINUOUS
370
25
 62
7
100
AcDbLine
 10
25.27733333333333
 20
0.0
 30
0.0
 11
25.27733333333333
 21
8.0
 31
0.0
  0
LINE
  5
381
330
1F
100
AcDbEntity
  8
NOCUT
  6
CONTINUOUS
370
25
 62
7
100
AcDbLine
 10
25.27733333333333
 20
8.0
 30
0.0
 11
31.55203896932107
 21
13.52434029932107
 31
0.0
  0
LINE
  5
382
330
1F
100
AcDbEntity
  8
NOCUT
  6
CONTINUOUS
370
25
 62
7
100
AcDbLine
 10
31.55203896932107
 20
13.52434029932107
 30
0.0
 11
37.916
 21
19.88830133
 31
0.0
  0
LINE
  5
383
330
1F
100
AcDbEntity
  8
NOCUT
  6
CONTINUOUS
370
25
 62
7
100
AcDbLine
 10
37.916
 20
19.88830133
 30
0.0
 11
37.916
 21
20.38830133
 31
0.0
  0
LINE
  5
384
330
1F
100
AcDbEntity
  8
NOCUT
  6
CONTINUOUS
370
25
 62
7
100
AcDbLine
 10
37.916
 20
20.38830133
 30
0.0
 11
34.65430133
 21
23.65
 31
0.0
  0
LINE
  5
385
330
1F
100
AcDbEntity
  8
NOCUT
  6
CONTINUOUS
370
25
 62
7
100
AcDbLine
 10
34.65430133
 20
23.65
 30
0.0
 11
30.15430133
 21
23.65
 31
0.0
  0
LINE
  5
386
330
1F
100
AcDbEntity
  8
NOCUT
  6
CONTINUOUS
370
25
 62
7
100
AcDbLine
 10
30.15430133
 20
23.65
 30
0.0
 11
23.79034029932107
 21
19.0
 31
0.0
  0
LINE
  5
387
330
1F
100
AcDbEntity
  8
NOCUT
  6
CONTINUOUS
370
25
 62
7
100
AcDbLine
 10
23.79034029932107
 20
19.0
 30
0.0
 11
11.0
 21
19.0
 31
0.0
  0
LINE
  5
388
330
1F
100
AcDbEntity
  8
NOCUT
  6
CONTINUOUS
370
25
 62
7
100
AcDbLine
 10
11.0
 20
19.0
 30
0.0
 11
0.0
 21
19.0
 31
0.0
  0
LINE
  5
389
330
1F
100
AcDbEntity
  8
NOCUT
  6
CONTINUOUS
370
25
 62
7
100
AcDbLine
 10
0.0
 20
19.0
 30
0.0
 11
0.0
 21
0.0
 31
0.0
  0
LINE
  5
38A
330
1F
100
AcDbEntity
  8
SK3
  6
DASH
370
35
 62
1
100
AcDbLine
 10
25.27733333333333
 20
8.0
 30
0.0
 11
25.27733333333333
 21
-8.0
 31
0.0
  0
LINE
  5
38B
330
1F
100
AcDbEntity
  8
SK3
  6
DASH
370
35
 62
1
100
AcDbLine
 10
25.27733333333333
 20
8.0
 30
0.0
 11
31.55203896932107
 21
13.52434029932107
 31
0.0
  0
LINE
  5
38C
330
1F
100
AcDbEntity
  8
SK3
  6
DASH
370
35
 62
1
100
AcDbLine
 10
25.27733333333333
 20
-8.0
 30
0.0
 11
31.55203896932107
 21
-13.52434029932107
 31
0.0
  0
LINE
  5
38D
330
1F
100
AcDbEntity
  8
SK3
  6
DASH
370
35
 62
1
100
AcDbLine
 10
31.55203896932107
 20
13.52434029932107
 30
0.0
 11
31.55203896932107
 21
-13.52434029932107
 31
0.0
  0
LINE
  5
38E
330
1F
100
AcDbEntity
  8
SK3
  6
DASH
370
35
 62
1
100
AcDbLine
 10
31.55203896932107
 20
13.52434029932107
 30
0.0
 11
37.916
 21
19.88830133
 31
0.0
  0
LINE
  5
38F
330
1F
100
AcDbEntity
  8
SK3
  6
DASH
370
35
 62
1
100
AcDbLine
 10
31.55203896932107
 20
-13.52434029932107
 30
0.0
 11
37.916
 21
-19.88830133
 31
0.0
  0
LINE
  5
390
330
1F
100
AcDbEntity
  8
2
  6
CONTINUOUS
370
25
 62
7
100
AcDbLine
 10
40.0
 20
-20.0
 30
0.0
 11
63.0
 21
-20.0
 31
0.0
  0
LINE
  5
391
330
1F
100
AcDbEntity
  8
2
  6
CONTINUOUS
370
25
 62
7
100
AcDbLine
 10
63.0
 20
20.0
 30
0.0
 11
40.0
 21
20.0
 31
0.0
  0
LINE
  5
392
330
1F
100
AcDbEntity
  8
2
  6
CONTINUOUS
370
25
 62
7
100
AcDbLine
 10
62.0
 20
-20.0
 30
0.0
 11
62.0
 21
20.0
 31
0.0
  0
LINE
  5
393
330
1F
100
AcDbEntity
  8
2
  6
CONTINUOUS
370
25
 62
7
100
AcDbLine
 10
62.0
 20
-20.0
 30
0.0
 11
61.0
 21
-15.0
 31
0.0
  0
LINE
  5
394
330
1F
100
AcDbEntity
  8
2
  6
CONTINUOUS
370
25
 62
7
100
AcDbLine
 10
61.0
 20
-15.0
 30
0.0
 11
63.0
 21
-15.0
 31
0.0
  0
LINE
  5
395
330
1F
100
AcDbEntity
  8
2
  6
CONTINUOUS
370
25
 62
7
100
AcDbLine
 10
63.0
 20
-15.0
 30
0.0
 11
62.0
 21
-20.0
 31
0.0
  0
LINE
  5
396
330
1F
100
AcDbEntity
  8
2
  6
CONTINUOUS
370
25
 62
7
100
AcDbLine
 10
61.94600209681313
 20
-19.73001048406568
 30
0.0
 11
62.0809968547803
 21
-19.59501572609852
 31
0.0
  0
LINE
  5
397
330
1F
100
AcDbEntity
  8
2
  6
CONTINUOUS
370
25
 62
7
100
AcDbLine
 10
61.87529141869448
 20
-19.3764570934724
 30
0.0
 11
62.18706287195828
 21
-19.06468564020861
 31
0.0
  0
LINE
  5
398
330
1F
100
AcDbEntity
  8
2
  6
CONTINUOUS
370
25
 62
7
100
AcDbLine
 10
61.80458074057583
 20
-19.02290370287913
 30
0.0
 11
62.29312888913626
 21
-18.53435555431871
 31
0.0
  0
LINE
  5
399
330
1F
100
AcDbEntity
  8
2
  6
CONTINUOUS
370
25
 62
7
100
AcDbLine
 10
61.73387006245717
 20
-18.66935031228586
 30
0.0
 11
62.39919490631424
 21
-18.00402546842879
 31
0.0
  0
LINE
  5
39A
330
1F
100
AcDbEntity
  8
2
  6
CONTINUOUS
370
25
 62
7
100
AcDbLine
 10
61.66315938433852
 20
-18.31579692169257
 30
0.0
 11
62.50526092349222
 21
-17.47369538253889
 31
0.0
  0
LINE
  5
39B
330
1F
100
AcDbEntity
  8
2
  6
CONTINUOUS
370
25
 62
7
100
AcDbLine
 10
61.59244870621986
 20
-17.9622435310993
 30
0.0
 11
62.6113269406702
 21
-16.94336529664898
 31
0.0
  0
LINE
  5
39C
330
1F
100
AcDbEntity
  8
2
  6
CONTINUOUS
370
25
 62
7
100
AcDbLine
 10
61.5217380281012
 20
-17.60869014050603
 30
0.0
 11
62.71739295784819
 21
-16.41303521075906
 31
0.0
  0
LINE
  5
39D
330
1F
100
AcDbEntity
  8
2
  6
CONTINUOUS
370
25
 62
7
100
AcDbLine
 10
61.45102734998255
 20
-17.25513674991277
 30
0.0
 11
62.82345897502617
 21
-15.88270512486916
 31
0.0
  0
LINE
  5
39E
330
1F
100
AcDbEntity
  8
2
  6
CONTINUOUS
370
25
 62
7
100
AcDbLine
 10
61.38031667186389
 20
-16.9015833593195
 30
0.0
 11
62.92952499220415
 21
-15.35237503897925
 31
0.0
  0
LINE
  5
39F
330
1F
100
AcDbEntity
  8
2
  6
CONTINUOUS
370
25
 62
7
100
AcDbLine
 10
61.30960599374524
 20
-16.54802996872622
 30
0.0
 11
62.85763596247148
 21
-15.0
 31
0.0
  0
LINE
  5
3A0
330
1F
100
AcDbEntity
  8
2
  6
CONTINUOUS
370
25
 62
7
100
AcDbLine
 10
61.2388953156266
 20
-16.19447657813294
 30
0.0
 11
62.43337189375956
 21
-15.0
 31
0.0
  0
LINE
  5
3A1
330
1F
100
AcDbEntity
  8
2
  6
CONTINUOUS
370
25
 62
7
100
AcDbLine
 10
61.16818463750794
 20
-15.84092318753967
 30
0.0
 11
62.00910782504762
 21
-15.0
 31
0.0
  0
LINE
  5
3A2
330
1F
100
AcDbEntity
  8
2
  6
CONTINUOUS
370
25
 62
7
100
AcDbLine
 10
61.09747395938929
 20
-15.48736979694639
 30
0.0
 11
61.58484375633569
 21
-15.0
 31
0.0
  0
LINE
  5
3A3
330
1F
100
AcDbEntity
  8
2
  6
CONTINUOUS
370
25
 62
7
100
AcDbLine
 10
61.02676328127063
 20
-15.13381640635314
 30
0.0
 11
61.16057968762377
 21
-15.0
 31
0.0
  0
LINE
  5
3A4
330
1F
100
AcDbEntity
  8
2
  6
CONTINUOUS
370
25
 62
7
100
AcDbLine
 10
61.99946429937978
 20
-19.99732149689887
 30
0.0
 11
62.00035713374681
 21
-19.9982143312659
 31
0.0
  0
LINE
  5
3A5
330
1F
100
AcDbEntity
  8
2
  6
CONTINUOUS
370
25
 62
7
100
AcDbLine
 10
61.89339828220179
 20
-19.46699141100896
 30
0.0
 11
62.07106781186548
 21
-19.64466094067264
 31
0.0
  0
LINE
  5
3A6
330
1F
100
AcDbEntity
  8
2
  6
CONTINUOUS
370
25
 62
7
100
AcDbLine
 10
61.78733226502381
 20
-18.93666132511904
 30
0.0
 11
62.14177848998412
 21
-19.29110755007935
 31
0.0
  0
LINE
  5
3A7
330
1F
100
AcDbEntity
  8
2
  6
CONTINUOUS
370
25
 62
7
100
AcDbLine
 10
61.68126624784583
 20
-18.40633123922913
 30
0.0
 11
62.21248916810278
 21
-18.9375541594861
 31
0.0
  0
LINE
  5
3A8
330
1F
100
AcDbEntity
  8
2
  6
CONTINUOUS
370
25
 62
7
100
AcDbLine
 10
61.57520023066784
 20
-17.87600115333921
 30
0.0
 11
62.28319984622144
 21
-18.58400076889281
 31
0.0
  0
LINE
  5
3A9
330
1F
100
AcDbEntity
  8
2
  6
CONTINUOUS
370
25
 62
7
100
AcDbLine
 10
61.46913421348986
 20
-17.3456710674493
 30
0.0
 11
62.35391052434009
 21
-18.23044737829954
 31
0.0
  0
LINE
  5
3AA
330
1F
100
AcDbEntity
  8
2
  6
CONTINUOUS
370
25
 62
7
100
AcDbLine
 10
61.36306819631188
 20
-16.81534098155939
 30
0.0
 11
62.42462120245875
 21
-17.87689398770626
 31
0.0
  0
LINE
  5
3AB
330
1F
100
AcDbEntity
  8
2
  6
CONTINUOUS
370
25
 62
7
100
AcDbLine
 10
61.2570021791339
 20
-16.28501089566949
 30
0.0
 11
62.4953318805774
 21
-17.52334059711299
 31
0.0
  0
LINE
  5
3AC
330
1F
100
AcDbEntity
  8
2
  6
CONTINUOUS
370
25
 62
7
100
AcDbLine
 10
61.15093616195591
 20
-15.75468080977956
 30
0.0
 11
62.56604255869606
 21
-17.16978720651972
 31
0.0
  0
LINE
  5
3AD
330
1F
100
AcDbEntity
  8
2
  6
CONTINUOUS
370
25
 62
7
100
AcDbLine
 10
61.04487014477793
 20
-15.22435072388966
 30
0.0
 11
62.63675323681471
 21
-16.81623381592645
 31
0.0
  0
LINE
  5
3AE
330
1F
100
AcDbEntity
  8
2
  6
CONTINUOUS
370
25
 62
7
100
AcDbLine
 10
61.24478348960021
 20
-15.0
 30
0.0
 11
62.70746391493337
 21
-16.46268042533318
 31
0.0
  0
LINE
  5
3AF
330
1F
100
AcDbEntity
  8
2
  6
CONTINUOUS
370
25
 62
7
100
AcDbLine
 10
61.66904755831214
 20
-15.0
 30
0.0
 11
62.77817459305202
 21
-16.1091270347399
 31
0.0
  0
LINE
  5
3B0
330
1F
100
AcDbEntity
  8
2
  6
CONTINUOUS
370
25
 62
7
100
AcDbLine
 10
62.09331162702406
 20
-15.0
 30
0.0
 11
62.84888527117067
 21
-15.75557364414662
 31
0.0
  0
LINE
  5
3B1
330
1F
100
AcDbEntity
  8
2
  6
CONTINUOUS
370
25
 62
7
100
AcDbLine
 10
62.51757569573599
 20
-15.0
 30
0.0
 11
62.91959594928933
 21
-15.40202025355335
 31
0.0
  0
LINE
  5
3B2
330
1F
100
AcDbEntity
  8
2
  6
CONTINUOUS
370
25
 62
7
100
AcDbLine
 10
62.94183976444791
 20
-15.0
 30
0.0
 11
62.99030662740798
 21
-15.04846686296007
 31
0.0
  0
LINE
  5
3B3
330
1F
100
AcDbEntity
  8
2
  6
CONTINUOUS
370
25
 62
7
100
AcDbLine
 10
62.0
 20
20.0
 30
0.0
 11
63.0
 21
15.0
 31
0.0
  0
LINE
  5
3B4
330
1F
100
AcDbEntity
  8
2
  6
CONTINUOUS
370
25
 62
7
100
AcDbLine
 10
63.0
 20
15.0
 30
0.0
 11
61.0
 21
15.0
 31
0.0
  0
LINE
  5
3B5
330
1F
100
AcDbEntity
  8
2
  6
CONTINUOUS
370
25
 62
7
100
AcDbLine
 10
61.0
 20
15.0
 30
0.0
 11
62.0
 21
20.0
 31
0.0
  0
LINE
  5
3B6
330
1F
100
AcDbEntity
  8
2
  6
CONTINUOUS
370
25
 62
7
100
AcDbLine
 10
62.73845842139266
 20
15.0
 30
0.0
 11
62.95640973689877
 21
15.21795131550611
 31
0.0
  0
LINE
  5
3B7
330
1F
100
AcDbEntity
  8
2
  6
CONTINUOUS
370
25
 62
7
100
AcDbLine
 10
62.31419435268074
 20
15.0
 30
0.0
 11
62.88569905878012
 21
15.57150470609938
 31
0.0
  0
LINE
  5
3B8
330
1F
100
AcDbEntity
  8
2
  6
CONTINUOUS
370
25
 62
7
100
AcDbLine
 10
61.8899302839688
 20
15.0
 30
0.0
 11
62.81498838066147
 21
15.92505809669267
 31
0.0
  0
LINE
  5
3B9
330
1F
100
AcDbEntity
  8
2
  6
CONTINUOUS
370
25
 62
7
100
AcDbLine
 10
61.46566621525687
 20
15.0
 30
0.0
 11
62.74427770254281
 21
16.27861148728593
 31
0.0
  0
LINE
  5
3BA
330
1F
100
AcDbEntity
  8
2
  6
CONTINUOUS
370
25
 62
7
100
AcDbLine
 10
61.04140214654495
 20
15.0
 30
0.0
 11
62.67356702442416
 21
16.63216487787921
 31
0.0
  0
LINE
  5
3BB
330
1F
100
AcDbEntity
  8
2
  6
CONTINUOUS
370
25
 62
7
100
AcDbLine
 10
61.09571548054174
 20
15.47857740270872
 30
0.0
 11
62.6028563463055
 21
16.98571826847247
 31
0.0
  0
LINE
  5
3BC
330
1F
100
AcDbEntity
  8
2
  6
CONTINUOUS
370
25
 62
7
100
AcDbLine
 10
61.20178149771974
 20
16.00890748859864
 30
0.0
 11
62.53214566818684
 21
17.33927165906574
 31
0.0
  0
LINE
  5
3BD
330
1F
100
AcDbEntity
  8
2
  6
CONTINUOUS
370
25
 62
7
100
AcDbLine
 10
61.30784751489772
 20
16.53923757448855
 30
0.0
 11
62.4614349900682
 21
17.69282504965902
 31
0.0
  0
LINE
  5
3BE
330
1F
100
AcDbEntity
  8
2
  6
CONTINUOUS
370
25
 62
7
100
AcDbLine
 10
61.4139135320757
 20
17.06956766037845
 30
0.0
 11
62.39072431194954
 21
18.04637844025229
 31
0.0
  0
LINE
  5
3BF
330
1F
100
AcDbEntity
  8
2
  6
CONTINUOUS
370
25
 62
7
100
AcDbLine
 10
61.51997954925367
 20
17.59989774626835
 30
0.0
 11
62.32001363383089
 21
18.39993183084557
 31
0.0
  0
LINE
  5
3C0
330
1F
100
AcDbEntity
  8
2
  6
CONTINUOUS
370
25
 62
7
100
AcDbLine
 10
61.62604556643165
 20
18.13022783215826
 30
0.0
 11
62.24930295571224
 21
18.75348522143884
 31
0.0
  0
LINE
  5
3C1
330
1F
100
AcDbEntity
  8
2
  6
CONTINUOUS
370
25
 62
7
100
AcDbLine
 10
61.73211158360963
 20
18.66055791804816
 30
0.0
 11
62.17859227759358
 21
19.10703861203211
 31
0.0
  0
LINE
  5
3C2
330
1F
100
AcDbEntity
  8
2
  6
CONTINUOUS
370
25
 62
7
100
AcDbLine
 10
61.83817760078761
 20
19.19088800393807
 30
0.0
 11
62.10788159947493
 21
19.46059200262538
 31
0.0
  0
LINE
  5
3C3
330
1F
100
AcDbEntity
  8
2
  6
CONTINUOUS
370
25
 62
7
100
AcDbLine
 10
61.9442436179656
 20
19.72121808982799
 30
0.0
 11
62.03717092135626
 21
19.81414539321865
 31
0.0
  0
LINE
  5
3C4
330
1F
100
AcDbEntity
  8
2
  6
CONTINUOUS
370
25
 62
7
100
AcDbLine
 10
61.06125539469118
 20
15.30627697345589
 30
0.0
 11
61.36753236814707
 21
15.0
 31
0.0
  0
LINE
  5
3C5
330
1F
100
AcDbEntity
  8
2
  6
CONTINUOUS
370
25
 62
7
100
AcDbLine
 10
61.13196607280983
 20
15.65983036404916
 30
0.0
 11
61.79179643685899
 21
15.0
 31
0.0
  0
LINE
  5
3C6
330
1F
100
AcDbEntity
  8
2
  6
CONTINUOUS
370
25
 62
7
100
AcDbLine
 10
61.20267675092849
 20
16.01338375464243
 30
0.0
 11
62.21606050557092
 21
15.0
 31
0.0
  0
LINE
  5
3C7
330
1F
100
AcDbEntity
  8
2
  6
CONTINUOUS
370
25
 62
7
100
AcDbLine
 10
61.27338742904714
 20
16.36693714523572
 30
0.0
 11
62.64032457428285
 21
15.0
 31
0.0
  0
LINE
  5
3C8
330
1F
100
AcDbEntity
  8
2
  6
CONTINUOUS
370
25
 62
7
100
AcDbLine
 10
61.34409810716581
 20
16.72049053582897
 30
0.0
 11
62.98385283925131
 21
15.08073580374347
 31
0.0
  0
LINE
  5
3C9
330
1F
100
AcDbEntity
  8
2
  6
CONTINUOUS
370
25
 62
7
100
AcDbLine
 10
61.41480878528446
 20
17.07404392642226
 30
0.0
 11
62.87778682207332
 21
15.61106588963339
 31
0.0
  0
LINE
  5
3CA
330
1F
100
AcDbEntity
  8
2
  6
CONTINUOUS
370
25
 62
7
100
AcDbLine
 10
61.48551946340311
 20
17.42759731701553
 30
0.0
 11
62.77172080489534
 21
16.14139597552329
 31
0.0
  0
LINE
  5
3CB
330
1F
100
AcDbEntity
  8
2
  6
CONTINUOUS
370
25
 62
7
100
AcDbLine
 10
61.55623014152175
 20
17.78115070760881
 30
0.0
 11
62.66565478771737
 21
16.67172606141319
 31
0.0
  0
LINE
  5
3CC
330
1F
100
AcDbEntity
  8
2
  6
CONTINUOUS
370
25
 62
7
100
AcDbLine
 10
61.62694081964042
 20
18.13470409820208
 30
0.0
 11
62.55958877053938
 21
17.20205614730311
 31
0.0
  0
LINE
  5
3CD
330
1F
100
AcDbEntity
  8
2
  6
CONTINUOUS
370
25
 62
7
100
AcDbLine
 10
61.69765149775908
 20
18.48825748879536
 30
0.0
 11
62.45352275336139
 21
17.73238623319303
 31
0.0
  0
LINE
  5
3CE
330
1F
100
AcDbEntity
  8
2
  6
CONTINUOUS
370
25
 62
7
100
AcDbLine
 10
61.76836217587773
 20
18.84181087938862
 30
0.0
 11
62.34745673618341
 21
18.26271631908293
 31
0.0
  0
LINE
  5
3CF
330
1F
100
AcDbEntity
  8
2
  6
CONTINUOUS
370
25
 62
7
100
AcDbLine
 10
61.83907285399639
 20
19.19536426998189
 30
0.0
 11
62.24139071900542
 21
18.79304640497286
 31
0.0
  0
LINE
  5
3D0
330
1F
100
AcDbEntity
  8
2
  6
CONTINUOUS
370
25
 62
7
100
AcDbLine
 10
61.90978353211504
 20
19.54891766057518
 30
0.0
 11
62.13532470182744
 21
19.32337649086276
 31
0.0
  0
LINE
  5
3D1
330
1F
100
AcDbEntity
  8
2
  6
CONTINUOUS
370
25
 62
7
100
AcDbLine
 10
61.98049421023369
 20
19.90247105116845
 30
0.0
 11
62.02925868464946
 21
19.85370657675269
 31
0.0
  0
TEXT
  5
3D2
330
1F
100
AcDbEntity
  8
2
  6
CONTINUOUS
370
25
 62
7
100
AcDbText
 10
60.5
 20
-0.3500000000000001
 30
0.0
 40
3.5
  1
40
 50
90.0
 72
     1
 11
60.5
 21
2.275
 31
0.0
100
AcDbText
  0
CIRCLE
  5
3D3
330
1F
100
AcDbEntity
  8
2
  6
CONTINUOUS
370
25
 62
7
100
AcDbCircle
 10
58.75
 20
-2.625
 30
0.0
 40
1.4
  0
LINE
  5
3D4
330
1F
100
AcDbEntity
  8
2
  6
CONTINUOUS
370
25
 62
7
100
AcDbLine
 10
60.15
 20
-4.024999999999999
 30
0.0
 11
57.35
 21
-1.224999999999999
 31
0.0
  0
LINE
  5
3D5
330
1F
100
AcDbEntity
  8
2
  6
CONTINUOUS
370
25
 62
7
100
AcDbLine
 10
34.93603897
 20
-25.06396103
 30
0.0
 11
73.0
 21
-25.06396103
 31
0.0
  0
LINE
  5
3D6
330
1F
100
AcDbEntity
  8
2
  6
CONTINUOUS
370
25
 62
7
100
AcDbLine
 10
73.0
 20
25.06603897
 30
0.0
 11
34.93603897
 21
25.06603897
 31
0.0
  0
LINE
  5
3D7
330
1F
100
AcDbEntity
  8
2
  6
CONTINUOUS
370
25
 62
7
100
AcDbLine
 10
72.0
 20
-25.06396103
 30
0.0
 11
72.0
 21
25.06603897
 31
0.0
  0
LINE
  5
3D8
330
1F
100
AcDbEntity
  8
2
  6
CONTINUOUS
370
25
 62
7
100
AcDbLine
 10
72.0
 20
-25.06396103
 30
0.0
 11
71.0
 21
-20.06396103
 31
0.0
  0
LINE
  5
3D9
330
1F
100
AcDbEntity
  8
2
  6
CONTINUOUS
370
25
 62
7
100
AcDbLine
 10
71.0
 20
-20.06396103
 30
0.0
 11
73.0
 21
-20.06396103
 31
0.0
  0
LINE
  5
3DA
330
1F
100
AcDbEntity
  8
2
  6
CONTINUOUS
370
25
 62
7
100
AcDbLine
 10
73.0
 20
-20.06396103
 30
0.0
 11
72.0
 21
-25.06396103
 31
0.0
  0
LINE
  5
3DB
330
1F
100
AcDbEntity
  8
2
  6
CONTINUOUS
370
25
 62
7
100
AcDbLine
 10
71.9817885343269
 20
-24.97290370163445
 30
0.0
 11
72.02731719850966
 21
-24.92737503745168
 31
0.0
  0
LINE
  5
3DC
330
1F
100
AcDbEntity
  8
2
  6
CONTINUOUS
370
25
 62
7
100
AcDbLine
 10
71.91107785620824
 20
-24.61935031104119
 30
0.0
 11
72.13338321568764
 21
-24.39704495156178
 31
0.0
  0
LINE
  5
3DD
330
1F
100
AcDbEntity
  8
2
  6
CONTINUOUS
370
25
 62
7
100
AcDbLine
 10
71.84036717808958
 20
-24.26579692044793
 30
0.0
 11
72.23944923286562
 21
-23.86671486567188
 31
0.0
  0
LINE
  5
3DE
330
1F
100
AcDbEntity
  8
2
  6
CONTINUOUS
370
25
 62
7
100
AcDbLine
 10
71.76965649997094
 20
-23.91224352985463
 30
0.0
 11
72.3455152500436
 21
-23.33638477978197
 31
0.0
  0
LINE
  5
3DF
330
1F
100
AcDbEntity
  8
2
  6
CONTINUOUS
370
25
 62
7
100
AcDbLine
 10
71.69894582185228
 20
-23.55869013926137
 30
0.0
 11
72.45158126722158
 21
-22.80605469389207
 31
0.0
  0
LINE
  5
3E0
330
1F
100
AcDbEntity
  8
2
  6
CONTINUOUS
370
25
 62
7
100
AcDbLine
 10
71.62823514373362
 20
-23.20513674866811
 30
0.0
 11
72.55764728439956
 21
-22.27572460800216
 31
0.0
  0
LINE
  5
3E1
330
1F
100
AcDbEntity
  8
2
  6
CONTINUOUS
370
25
 62
7
100
AcDbLine
 10
71.55752446561497
 20
-22.85158335807483
 30
0.0
 11
72.66371330157754
 21
-21.74539452211226
 31
0.0
  0
LINE
  5
3E2
330
1F
100
AcDbEntity
  8
2
  6
CONTINUOUS
370
25
 62
7
100
AcDbLine
 10
71.48681378749632
 20
-22.49802996748157
 30
0.0
 11
72.76977931875552
 21
-21.21506443622236
 31
0.0
  0
LINE
  5
3E3
330
1F
100
AcDbEntity
  8
2
  6
CONTINUOUS
370
25
 62
7
100
AcDbLine
 10
71.41610310937766
 20
-22.14447657688829
 30
0.0
 11
72.8758453359335
 21
-20.68473435033245
 31
0.0
  0
LINE
  5
3E4
330
1F
100
AcDbEntity
  8
2
  6
CONTINUOUS
370
25
 62
7
100
AcDbLine
 10
71.34539243125901
 20
-21.79092318629502
 30
0.0
 11
72.98191135311149
 21
-20.15440426444255
 31
0.0
  0
LINE
  5
3E5
330
1F
100
AcDbEntity
  8
2
  6
CONTINUOUS
370
25
 62
7
100
AcDbLine
 10
71.27468175314036
 20
-21.43736979570176
 30
0.0
 11
72.64809051884211
 21
-20.06396103
 31
0.0
  0
LINE
  5
3E6
330
1F
100
AcDbEntity
  8
2
  6
CONTINUOUS
370
25
 62
7
100
AcDbLine
 10
71.2039710750217
 20
-21.08381640510848
 30
0.0
 11
72.22382645013018
 21
-20.06396103
 31
0.0
  0
LINE
  5
3E7
330
1F
100
AcDbEntity
  8
2
  6
CONTINUOUS
370
25
 62
7
100
AcDbLine
 10
71.13326039690305
 20
-20.7302630145152
 30
0.0
 11
71.79956238141826
 21
-20.06396103
 31
0.0
  0
LINE
  5
3E8
330
1F
100
AcDbEntity
  8
2
  6
CONTINUOUS
370
25
 62
7
100
AcDbLine
 10
71.06254971878438
 20
-20.37670962392195
 30
0.0
 11
71.37529831270633
 21
-20.06396103
 31
0.0
  0
LINE
  5
3E9
330
1F
100
AcDbEntity
  8
2
  6
CONTINUOUS
370
25
 62
7
100
AcDbLine
 10
71.96068183574388
 20
-24.86737020871936
 30
0.0
 11
72.02621210950407
 21
-24.93290048247955
 31
0.0
  0
LINE
  5
3EA
330
1F
100
AcDbEntity
  8
2
  6
CONTINUOUS
370
25
 62
7
100
AcDbLine
 10
71.85461581856589
 20
-24.33704012282945
 30
0.0
 11
72.09692278762274
 21
-24.57934709188631
 31
0.0
  0
LINE
  5
3EB
330
1F
100
AcDbEntity
  8
2
  6
CONTINUOUS
370
25
 62
7
100
AcDbLine
 10
71.74854980138791
 20
-23.80671003693954
 30
0.0
 11
72.16763346574139
 21
-24.22579370129302
 31
0.0
  0
LINE
  5
3EC
330
1F
100
AcDbEntity
  8
2
  6
CONTINUOUS
370
25
 62
7
100
AcDbLine
 10
71.64248378420993
 20
-23.27637995104963
 30
0.0
 11
72.23834414386005
 21
-23.87224031069975
 31
0.0
  0
LINE
  5
3ED
330
1F
100
AcDbEntity
  8
2
  6
CONTINUOUS
370
25
 62
7
100
AcDbLine
 10
71.53641776703195
 20
-22.74604986515973
 30
0.0
 11
72.3090548219787
 21
-23.51868692010649
 31
0.0
  0
LINE
  5
3EE
330
1F
100
AcDbEntity
  8
2
  6
CONTINUOUS
370
25
 62
7
100
AcDbLine
 10
71.43035174985397
 20
-22.21571977926983
 30
0.0
 11
72.37976550009735
 21
-23.16513352951321
 31
0.0
  0
LINE
  5
3EF
330
1F
100
AcDbEntity
  8
2
  6
CONTINUOUS
370
25
 62
7
100
AcDbLine
 10
71.32428573267599
 20
-21.68538969337992
 30
0.0
 11
72.45047617821601
 21
-22.81158013891994
 31
0.0
  0
LINE
  5
3F0
330
1F
100
AcDbEntity
  8
2
  6
CONTINUOUS
370
25
 62
7
100
AcDbLine
 10
71.21821971549801
 20
-21.15505960749002
 30
0.0
 11
72.52118685633467
 21
-22.45802674832667
 31
0.0
  0
LINE
  5
3F1
330
1F
100
AcDbEntity
  8
2
  6
CONTINUOUS
370
25
 62
7
100
AcDbLine
 10
71.11215369832003
 20
-20.62472952160012
 30
0.0
 11
72.59189753445331
 21
-22.1044733577334
 31
0.0
  0
LINE
  5
3F2
330
1F
100
AcDbEntity
  8
2
  6
CONTINUOUS
370
25
 62
7
100
AcDbLine
 10
71.00608768114205
 20
-20.09439943571022
 30
0.0
 11
72.66260821257197
 21
-21.75091996714013
 31
0.0
  0
LINE
  5
3F3
330
1F
100
AcDbEntity
  8
2
  6
CONTINUOUS
370
25
 62
7
100
AcDbLine
 10
71.39991334414376
 20
-20.06396102999999
 30
0.0
 11
72.73331889069063
 21
-21.39736657654687
 31
0.0
  0
LINE
  5
3F4
330
1F
100
AcDbEntity
  8
2
  6
CONTINUOUS
370
25
 62
7
100
AcDbLine
 10
71.82417741285569
 20
-20.06396103
 30
0.0
 11
72.80402956880927
 21
-21.04381318595358
 31
0.0
  0
LINE
  5
3F5
330
1F
100
AcDbEntity
  8
2
  6
CONTINUOUS
370
25
 62
7
100
AcDbLine
 10
72.24844148156761
 20
-20.06396103
 30
0.0
 11
72.87474024692793
 21
-20.69025979536032
 31
0.0
  0
LINE
  5
3F6
330
1F
100
AcDbEntity
  8
2
  6
CONTINUOUS
370
25
 62
7
100
AcDbLine
 10
72.67270555027953
 20
-20.06396103
 30
0.0
 11
72.94545092504659
 21
-20.33670640476706
 31
0.0
  0
LINE
  5
3F7
330
1F
100
AcDbEntity
  8
2
  6
CONTINUOUS
370
25
 62
7
100
AcDbLine
 10
72.0
 20
25.06603897
 30
0.0
 11
73.0
 21
20.06603897
 31
0.0
  0
LINE
  5
3F8
330
1F
100
AcDbEntity
  8
2
  6
CONTINUOUS
370
25
 62
7
100
AcDbLine
 10
73.0
 20
20.06603897
 30
0.0
 11
71.0
 21
20.06603897
 31
0.0
  0
LINE
  5
3F9
330
1F
100
AcDbEntity
  8
2
  6
CONTINUOUS
370
25
 62
7
100
AcDbLine
 10
71.0
 20
20.06603897
 30
0.0
 11
72.0
 21
25.06603897
 31
0.0
  0
LINE
  5
3FA
330
1F
100
AcDbEntity
  8
2
  6
CONTINUOUS
370
25
 62
7
100
AcDbLine
 10
72.58125062684938
 20
20.06603896999999
 30
0.0
 11
72.93020843780823
 21
20.41499678095884
 31
0.0
  0
LINE
  5
3FB
330
1F
100
AcDbEntity
  8
2
  6
CONTINUOUS
370
25
 62
7
100
AcDbLine
 10
72.15698655813746
 20
20.06603897
 30
0.0
 11
72.85949775968957
 21
20.76855017155211
 31
0.0
  0
LINE
  5
3FC
330
1F
100
AcDbEntity
  8
2
  6
CONTINUOUS
370
25
 62
7
100
AcDbLine
 10
71.73272248942554
 20
20.06603897000001
 30
0.0
 11
72.78878708157093
 21
21.1221035621454
 31
0.0
  0
LINE
  5
3FD
330
1F
100
AcDbEntity
  8
2
  6
CONTINUOUS
370
25
 62
7
100
AcDbLine
 10
71.30845842071362
 20
20.06603897000001
 30
0.0
 11
72.71807640345227
 21
21.47565695273866
 31
0.0
  0
LINE
  5
3FE
330
1F
100
AcDbEntity
  8
2
  6
CONTINUOUS
370
25
 62
7
100
AcDbLine
 10
71.02895141199957
 20
20.21079602999788
 30
0.0
 11
72.64736572533361
 21
21.82921034333192
 31
0.0
  0
LINE
  5
3FF
330
1F
100
AcDbEntity
  8
2
  6
CONTINUOUS
370
25
 62
7
100
AcDbLine
 10
71.13501742917755
 20
20.74112611588779
 30
0.0
 11
72.57665504721497
 21
22.18276373392521
 31
0.0
  0
LINE
  5
400
330
1F
100
AcDbEntity
  8
2
  6
CONTINUOUS
370
25
 62
7
100
AcDbLine
 10
71.24108344635555
 20
21.27145620177771
 30
0.0
 11
72.5059443690963
 21
22.53631712451846
 31
0.0
  0
LINE
  5
401
330
1F
100
AcDbEntity
  8
2
  6
CONTINUOUS
370
25
 62
7
100
AcDbLine
 10
71.34714946353351
 20
21.8017862876676
 30
0.0
 11
72.43523369097765
 21
22.88987051511174
 31
0.0
  0
LINE
  5
402
330
1F
100
AcDbEntity
  8
2
  6
CONTINUOUS
370
25
 62
7
100
AcDbLine
 10
71.4532154807115
 20
22.33211637355751
 30
0.0
 11
72.364523012859
 21
23.243423905705
 31
0.0
  0
LINE
  5
403
330
1F
100
AcDbEntity
  8
2
  6
CONTINUOUS
370
25
 62
7
100
AcDbLine
 10
71.55928149788949
 20
22.86244645944742
 30
0.0
 11
72.29381233474034
 21
23.59697729629827
 31
0.0
  0
LINE
  5
404
330
1F
100
AcDbEntity
  8
2
  6
CONTINUOUS
370
25
 62
7
100
AcDbLine
 10
71.66534751506747
 20
23.39277654533733
 30
0.0
 11
72.2231016566217
 21
23.95053068689155
 31
0.0
  0
LINE
  5
405
330
1F
100
AcDbEntity
  8
2
  6
CONTINUOUS
370
25
 62
7
100
AcDbLine
 10
71.77141353224545
 20
23.92310663122723
 30
0.0
 11
72.15239097850304
 21
24.30408407748482
 31
0.0
  0
LINE
  5
406
330
1F
100
AcDbEntity
  8
2
  6
CONTINUOUS
370
25
 62
7
100
AcDbLine
 10
71.87747954942343
 20
24.45343671711713
 30
0.0
 11
72.08168030038438
 21
24.65763746807808
 31
0.0
  0
LINE
  5
407
330
1F
100
AcDbEntity
  8
2
  6
CONTINUOUS
370
25
 62
7
100
AcDbLine
 10
71.9835455666014
 20
24.98376680300704
 30
0.0
 11
72.01096962226573
 21
25.01119085867136
 31
0.0
  0
LINE
  5
408
330
1F
100
AcDbEntity
  8
2
  6
CONTINUOUS
370
25
 62
7
100
AcDbLine
 10
71.02512263384413
 20
20.19165213922074
 30
0.0
 11
71.15073580306486
 21
20.06603897000001
 31
0.0
  0
LINE
  5
409
330
1F
100
AcDbEntity
  8
2
  6
CONTINUOUS
370
25
 62
7
100
AcDbLine
 10
71.09583331196279
 20
20.545205529814
 30
0.0
 11
71.57499987177678
 21
20.06603897000001
 31
0.0
  0
LINE
  5
40A
330
1F
100
AcDbEntity
  8
2
  6
CONTINUOUS
370
25
 62
7
100
AcDbLine
 10
71.16654399008145
 20
20.89875892040727
 30
0.0
 11
71.99926394048873
 21
20.06603896999999
 31
0.0
  0
LINE
  5
40B
330
1F
100
AcDbEntity
  8
2
  6
CONTINUOUS
370
25
 62
7
100
AcDbLine
 10
71.2372546682001
 20
21.25231231100055
 30
0.0
 11
72.42352800920065
 21
20.06603896999999
 31
0.0
  0
LINE
  5
40C
330
1F
100
AcDbEntity
  8
2
  6
CONTINUOUS
370
25
 62
7
100
AcDbLine
 10
71.30796534631877
 20
21.6058657015938
 30
0.0
 11
72.84779207791257
 21
20.06603896999999
 31
0.0
  0
LINE
  5
40D
330
1F
100
AcDbEntity
  8
2
  6
CONTINUOUS
370
25
 62
7
100
AcDbLine
 10
71.37867602443741
 20
21.95941909218708
 30
0.0
 11
72.93198596334389
 21
20.4061091532806
 31
0.0
  0
LINE
  5
40E
330
1F
100
AcDbEntity
  8
2
  6
CONTINUOUS
370
25
 62
7
100
AcDbLine
 10
71.44938670255607
 20
22.31297248278034
 30
0.0
 11
72.8259199461659
 21
20.93643923917051
 31
0.0
  0
LINE
  5
40F
330
1F
100
AcDbEntity
  8
2
  6
CONTINUOUS
370
25
 62
7
100
AcDbLine
 10
71.52009738067473
 20
22.66652587337362
 30
0.0
 11
72.71985392898792
 21
21.46676932506043
 31
0.0
  0
LINE
  5
410
330
1F
100
AcDbEntity
  8
2
  6
CONTINUOUS
370
25
 62
7
100
AcDbLine
 10
71.59080805879337
 20
23.02007926396689
 30
0.0
 11
72.61378791180994
 21
21.99709941095033
 31
0.0
  0
LINE
  5
411
330
1F
100
AcDbEntity
  8
2
  6
CONTINUOUS
370
25
 62
7
100
AcDbLine
 10
71.66151873691203
 20
23.37363265456015
 30
0.0
 11
72.50772189463196
 21
22.52742949684023
 31
0.0
  0
LINE
  5
412
330
1F
100
AcDbEntity
  8
2
  6
CONTINUOUS
370
25
 62
7
100
AcDbLine
 10
71.73222941503069
 20
23.72718604515343
 30
0.0
 11
72.40165587745398
 21
23.05775958273014
 31
0.0
  0
LINE
  5
413
330
1F
100
AcDbEntity
  8
2
  6
CONTINUOUS
370
25
 62
7
100
AcDbLine
 10
71.80294009314933
 20
24.08073943574671
 30
0.0
 11
72.295589860276
 21
23.58808966862004
 31
0.0
  0
LINE
  5
414
330
1F
100
AcDbEntity
  8
2
  6
CONTINUOUS
370
25
 62
7
100
AcDbLine
 10
71.87365077126799
 20
24.43429282633997
 30
0.0
 11
72.18952384309802
 21
24.11841975450994
 31
0.0
  0
LINE
  5
415
330
1F
100
AcDbEntity
  8
2
  6
CONTINUOUS
370
25
 62
7
100
AcDbLine
 10
71.94436144938665
 20
24.78784621693323
 30
0.0
 11
72.08345782592004
 21
24.64874984039984
 31
0.0
  0
TEXT
  5
416
330
1F
100
AcDbEntity
  8
2
  6
CONTINUOUS
370
25
 62
7
100
AcDbText
 10
70.5
 20
-3.848961030000001
 30
0.0
 40
3.5
  1
50.13
 50
90.0
 72
     1
 11
70.5
 21
2.27603897
 31
0.0
100
AcDbText
  0
CIRCLE
  5
417
330
1F
100
AcDbEntity
  8
2
  6
CONTINUOUS
370
25
 62
7
100
AcDbCircle
 10
68.75
 20
-7.348961030000001
 30
0.0
 40
1.4
  0
LINE
  5
418
330
1F
100
AcDbEntity
  8
2
  6
CONTINUOUS
370
25
 62
7
100
AcDbLine
 10
70.15
 20
-8.74896103
 30
0.0
 11
67.35
 21
-5.94896103
 31
0.0
  0
LINE
  5
419
330
1F
100
AcDbEntity
  8
2
  6
CONTINUOUS
370
25
 62
7
100
AcDbLine
 10
0.0
 20
-19.0
 30
0.0
 11
-23.0
 21
-19.0
 31
0.0
  0
LINE
  5
41A
330
1F
100
AcDbEntity
  8
2
  6
CONTINUOUS
370
25
 62
7
100
AcDbLine
 10
-23.0
 20
19.0
 30
0.0
 11
0.0000000000000036
 21
19.0
 31
0.0
  0
LINE
  5
41B
330
1F
100
AcDbEntity
  8
2
  6
CONTINUOUS
370
25
 62
7
100
AcDbLine
 10
-22.0
 20
-19.0
 30
0.0
 11
-22.0
 21
19.0
 31
0.0
  0
LINE
  5
41C
330
1F
100
AcDbEntity
  8
2
  6
CONTINUOUS
370
25
 62
7
100
AcDbLine
 10
-22.0
 20
-19.0
 30
0.0
 11
-23.0
 21
-14.0
 31
0.0
  0
LINE
  5
41D
330
1F
100
AcDbEntity
  8
2
  6
CONTINUOUS
370
25
 62
7
100
AcDbLine
 10
-23.0
 20
-14.0
 30
0.0
 11
-21.0
 21
-14.0
 31
0.0
  0
LINE
  5
41E
330
1F
100
AcDbEntity
  8
2
  6
CONTINUOUS
370
25
 62
7
100
AcDbLine
 10
-21.0
 20
-14.0
 30
0.0
 11
-22.0
 21
-19.0
 31
0.0
  0
LINE
  5
41F
330
1F
100
AcDbEntity
  8
2
  6
CONTINUOUS
370
25
 62
7
100
AcDbLine
 10
-22.06568542494924
 20
-18.67157287525381
 30
0.0
 11
-21.90147186257614
 21
-18.50735931288072
 31
0.0
  0
LINE
  5
420
330
1F
100
AcDbEntity
  8
2
  6
CONTINUOUS
370
25
 62
7
100
AcDbLine
 10
-22.13639610306789
 20
-18.31801948466054
 30
0.0
 11
-21.79540584539816
 21
-17.97702922699081
 31
0.0
  0
LINE
  5
421
330
1F
100
AcDbEntity
  8
2
  6
CONTINUOUS
370
25
 62
7
100
AcDbLine
 10
-22.20710678118655
 20
-17.96446609406727
 30
0.0
 11
-21.68933982822018
 21
-17.4466991411009
 31
0.0
  0
LINE
  5
422
330
1F
100
AcDbEntity
  8
2
  6
CONTINUOUS
370
25
 62
7
100
AcDbLine
 10
-22.2778174593052
 20
-17.61091270347399
 30
0.0
 11
-21.5832738110422
 21
-16.91636905521099
 31
0.0
  0
LINE
  5
423
330
1F
100
AcDbEntity
  8
2
  6
CONTINUOUS
370
25
 62
7
100
AcDbLine
 10
-22.34852813742386
 20
-17.25735931288072
 30
0.0
 11
-21.47720779386422
 21
-16.38603896932108
 31
0.0
  0
LINE
  5
424
330
1F
100
AcDbEntity
  8
2
  6
CONTINUOUS
370
25
 62
7
100
AcDbLine
 10
-22.41923881554251
 20
-16.90380592228745
 30
0.0
 11
-21.37114177668623
 21
-15.85570888343117
 31
0.0
  0
LINE
  5
425
330
1F
100
AcDbEntity
  8
2
  6
CONTINUOUS
370
25
 62
7
100
AcDbLine
 10
-22.48994949366117
 20
-16.55025253169418
 30
0.0
 11
-21.26507575950825
 21
-15.32537879754126
 31
0.0
  0
LINE
  5
426
330
1F
100
AcDbEntity
  8
2
  6
CONTINUOUS
370
25
 62
7
100
AcDbLine
 10
-22.56066017177982
 20
-16.1966991411009
 30
0.0
 11
-21.15900974233027
 21
-14.79504871165135
 31
0.0
  0
LINE
  5
427
330
1F
100
AcDbEntity
  8
2
  6
CONTINUOUS
370
25
 62
7
100
AcDbLine
 10
-22.63137084989847
 20
-15.84314575050763
 30
0.0
 11
-21.05294372515229
 21
-14.26471862576144
 31
0.0
  0
LINE
  5
428
330
1F
100
AcDbEntity
  8
2
  6
CONTINUOUS
370
25
 62
7
100
AcDbLine
 10
-22.70208152801713
 20
-15.48959235991435
 30
0.0
 11
-21.21248916810277
 21
-14.0
 31
0.0
  0
LINE
  5
429
330
1F
100
AcDbEntity
  8
2
  6
CONTINUOUS
370
25
 62
7
100
AcDbLine
 10
-22.77279220613579
 20
-15.13603896932108
 30
0.0
 11
-21.6367532368147
 21
-14.0
 31
0.0
  0
LINE
  5
42A
330
1F
100
AcDbEntity
  8
2
  6
CONTINUOUS
370
25
 62
7
100
AcDbLine
 10
-22.84350288425444
 20
-14.78248557872781
 30
0.0
 11
-22.06101730552663
 21
-14.0
 31
0.0
  0
LINE
  5
42B
330
1F
100
AcDbEntity
  8
2
  6
CONTINUOUS
370
25
 62
7
100
AcDbLine
 10
-22.91421356237309
 20
-14.42893218813454
 30
0.0
 11
-22.48528137423856
 21
-14.0
 31
0.0
  0
LINE
  5
42C
330
1F
100
AcDbEntity
  8
2
  6
CONTINUOUS
370
25
 62
7
100
AcDbLine
 10
-22.98492424049175
 20
-14.07537879754126
 30
0.0
 11
-22.90954544295048
 21
-14.0
 31
0.0
  0
LINE
  5
42D
330
1F
100
AcDbEntity
  8
2
  6
CONTINUOUS
370
25
 62
7
100
AcDbLine
 10
-22.04259318851597
 20
-18.78703405742015
 30
0.0
 11
-21.97160454098935
 21
-18.85802270494676
 31
0.0
  0
LINE
  5
42E
330
1F
100
AcDbEntity
  8
2
  6
CONTINUOUS
370
25
 62
7
100
AcDbLine
 10
-22.14865920569395
 20
-18.25670397153025
 30
0.0
 11
-21.9008938628707
 21
-18.5044693143535
 31
0.0
  0
LINE
  5
42F
330
1F
100
AcDbEntity
  8
2
  6
CONTINUOUS
370
25
 62
7
100
AcDbLine
 10
-22.25472522287193
 20
-17.72637388564033
 30
0.0
 11
-21.83018318475204
 21
-18.15091592376022
 31
0.0
  0
LINE
  5
430
330
1F
100
AcDbEntity
  8
2
  6
CONTINUOUS
370
25
 62
7
100
AcDbLine
 10
-22.36079124004991
 20
-17.19604379975043
 30
0.0
 11
-21.75947250663339
 21
-17.79736253316695
 31
0.0
  0
LINE
  5
431
330
1F
100
AcDbEntity
  8
2
  6
CONTINUOUS
370
25
 62
7
100
AcDbLine
 10
-22.4668572572279
 20
-16.66571371386051
 30
0.0
 11
-21.68876182851474
 21
-17.44380914257367
 31
0.0
  0
LINE
  5
432
330
1F
100
AcDbEntity
  8
2
  6
CONTINUOUS
370
25
 62
7
100
AcDbLine
 10
-22.57292327440588
 20
-16.13538362797061
 30
0.0
 11
-21.61805115039608
 21
-17.0902557519804
 31
0.0
  0
LINE
  5
433
330
1F
100
AcDbEntity
  8
2
  6
CONTINUOUS
370
25
 62
7
100
AcDbLine
 10
-22.67898929158386
 20
-15.60505354208069
 30
0.0
 11
-21.54734047227742
 21
-16.73670236138712
 31
0.0
  0
LINE
  5
434
330
1F
100
AcDbEntity
  8
2
  6
CONTINUOUS
370
25
 62
7
100
AcDbLine
 10
-22.78505530876184
 20
-15.07472345619079
 30
0.0
 11
-21.47662979415877
 21
-16.38314897079386
 31
0.0
  0
LINE
  5
435
330
1F
100
AcDbEntity
  8
2
  6
CONTINUOUS
370
25
 62
7
100
AcDbLine
 10
-22.89112132593982
 20
-14.54439337030088
 30
0.0
 11
-21.40591911604012
 21
-16.02959558020058
 31
0.0
  0
LINE
  5
436
330
1F
100
AcDbEntity
  8
2
  6
CONTINUOUS
370
25
 62
7
100
AcDbLine
 10
-22.9971873431178
 20
-14.01406328441097
 30
0.0
 11
-21.33520843792146
 21
-15.67604218960731
 31
0.0
  0
LINE
  5
437
330
1F
100
AcDbEntity
  8
2
  6
CONTINUOUS
370
25
 62
7
100
AcDbLine
 10
-22.58698655881685
 20
-14.0
 30
0.0
 11
-21.26449775980281
 21
-15.32248879901404
 31
0.0
  0
LINE
  5
438
330
1F
100
AcDbEntity
  8
2
  6
CONTINUOUS
370
25
 62
7
100
AcDbLine
 10
-22.16272249010492
 20
-14.0
 30
0.0
 11
-21.19378708168415
 21
-14.96893540842076
 31
0.0
  0
LINE
  5
439
330
1F
100
AcDbEntity
  8
2
  6
CONTINUOUS
370
25
 62
7
100
AcDbLine
 10
-21.73845842139299
 20
-14.0
 30
0.0
 11
-21.1230764035655
 21
-14.61538201782749
 31
0.0
  0
LINE
  5
43A
330
1F
100
AcDbEntity
  8
2
  6
CONTINUOUS
370
25
 62
7
100
AcDbLine
 10
-21.31419435268106
 20
-14.0
 30
0.0
 11
-21.05236572544684
 21
-14.26182862723422
 31
0.0
  0
LINE
  5
43B
330
1F
100
AcDbEntity
  8
2
  6
CONTINUOUS
370
25
 62
7
100
AcDbLine
 10
-22.0
 20
19.0
 30
0.0
 11
-21.0
 21
14.0
 31
0.0
  0
LINE
  5
43C
330
1F
100
AcDbEntity
  8
2
  6
CONTINUOUS
370
25
 62
7
100
AcDbLine
 10
-21.0
 20
14.0
 30
0.0
 11
-23.0
 21
14.0
 31
0.0
  0
LINE
  5
43D
330
1F
100
AcDbEntity
  8
2
  6
CONTINUOUS
370
25
 62
7
100
AcDbLine
 10
-23.0
 20
14.0
 30
0.0
 11
-22.0
 21
19.0
 31
0.0
  0
LINE
  5
43E
330
1F
100
AcDbEntity
  8
2
  6
CONTINUOUS
370
25
 62
7
100
AcDbLine
 10
-21.21391770309006
 20
14.0
 30
0.0
 11
-21.03565295051501
 21
14.17826475257505
 31
0.0
  0
LINE
  5
43F
330
1F
100
AcDbEntity
  8
2
  6
CONTINUOUS
370
25
 62
7
100
AcDbLine
 10
-21.63818177180198
 20
14.0
 30
0.0
 11
-21.10636362863366
 21
14.53181814316832
 31
0.0
  0
LINE
  5
440
330
1F
100
AcDbEntity
  8
2
  6
CONTINUOUS
370
25
 62
7
100
AcDbLine
 10
-22.06244584051392
 20
14.0
 30
0.0
 11
-21.17707430675232
 21
14.8853715337616
 31
0.0
  0
LINE
  5
441
330
1F
100
AcDbEntity
  8
2
  6
CONTINUOUS
370
25
 62
7
100
AcDbLine
 10
-22.48670990922584
 20
14.0
 30
0.0
 11
-21.24778498487097
 21
15.23892492435487
 31
0.0
  0
LINE
  5
442
330
1F
100
AcDbEntity
  8
2
  6
CONTINUOUS
370
25
 62
7
100
AcDbLine
 10
-22.91097397793777
 20
14.0
 30
0.0
 11
-21.31849566298963
 21
15.59247831494815
 31
0.0
  0
LINE
  5
443
330
1F
100
AcDbEntity
  8
2
  6
CONTINUOUS
370
25
 62
7
100
AcDbLine
 10
-22.91619048833758
 20
14.41904755831212
 30
0.0
 11
-21.38920634110828
 21
15.94603170554141
 31
0.0
  0
LINE
  5
444
330
1F
100
AcDbEntity
  8
2
  6
CONTINUOUS
370
25
 62
7
100
AcDbLine
 10
-22.81012447115959
 20
14.94937764420203
 30
0.0
 11
-21.45991701922694
 21
16.29958509613469
 31
0.0
  0
LINE
  5
445
330
1F
100
AcDbEntity
  8
2
  6
CONTINUOUS
370
25
 62
7
100
AcDbLine
 10
-22.70405845398161
 20
15.47970773009193
 30
0.0
 11
-21.53062769734559
 21
16.65313848672796
 31
0.0
  0
LINE
  5
446
330
1F
100
AcDbEntity
  8
2
  6
CONTINUOUS
370
25
 62
7
100
AcDbLine
 10
-22.59799243680363
 20
16.01003781598185
 30
0.0
 11
-21.60133837546424
 21
17.00669187732124
 31
0.0
  0
LINE
  5
447
330
1F
100
AcDbEntity
  8
2
  6
CONTINUOUS
370
25
 62
7
100
AcDbLine
 10
-22.49192641962565
 20
16.54036790187175
 30
0.0
 11
-21.6720490535829
 21
17.36024526791451
 31
0.0
  0
LINE
  5
448
330
1F
100
AcDbEntity
  8
2
  6
CONTINUOUS
370
25
 62
7
100
AcDbLine
 10
-22.38586040244767
 20
17.07069798776167
 30
0.0
 11
-21.74275973170155
 21
17.71379865850778
 31
0.0
  0
LINE
  5
449
330
1F
100
AcDbEntity
  8
2
  6
CONTINUOUS
370
25
 62
7
100
AcDbLine
 10
-22.27979438526969
 20
17.60102807365157
 30
0.0
 11
-21.81347040982021
 21
18.06735204910105
 31
0.0
  0
LINE
  5
44A
330
1F
100
AcDbEntity
  8
2
  6
CONTINUOUS
370
25
 62
7
100
AcDbLine
 10
-22.1737283680917
 20
18.13135815954149
 30
0.0
 11
-21.88418108793887
 21
18.42090543969433
 31
0.0
  0
LINE
  5
44B
330
1F
100
AcDbEntity
  8
2
  6
CONTINUOUS
370
25
 62
7
100
AcDbLine
 10
-22.06766235091372
 20
18.66168824543139
 30
0.0
 11
-21.95489176605752
 21
18.7744588302876
 31
0.0
  0
LINE
  5
44C
330
1F
100
AcDbEntity
  8
2
  6
CONTINUOUS
370
25
 62
7
100
AcDbLine
 10
-22.96179212381505
 20
14.19103938092475
 30
0.0
 11
-22.7707527428903
 21
14.0
 31
0.0
  0
LINE
  5
44D
330
1F
100
AcDbEntity
  8
2
  6
CONTINUOUS
370
25
 62
7
100
AcDbLine
 10
-22.8910814456964
 20
14.54459277151802
 30
0.0
 11
-22.34648867417837
 21
14.0
 31
0.0
  0
LINE
  5
44E
330
1F
100
AcDbEntity
  8
2
  6
CONTINUOUS
370
25
 62
7
100
AcDbLine
 10
-22.82037076757774
 20
14.89814616211129
 30
0.0
 11
-21.92222460546645
 21
14.0
 31
0.0
  0
LINE
  5
44F
330
1F
100
AcDbEntity
  8
2
  6
CONTINUOUS
370
25
 62
7
100
AcDbLine
 10
-22.74966008945909
 20
15.25169955270457
 30
0.0
 11
-21.49796053675452
 21
14.0
 31
0.0
  0
LINE
  5
450
330
1F
100
AcDbEntity
  8
2
  6
CONTINUOUS
370
25
 62
7
100
AcDbLine
 10
-22.67894941134043
 20
15.60525294329784
 30
0.0
 11
-21.07369646804259
 21
14.0
 31
0.0
  0
LINE
  5
451
330
1F
100
AcDbEntity
  8
2
  6
CONTINUOUS
370
25
 62
7
100
AcDbLine
 10
-22.60823873322178
 20
15.95880633389111
 30
0.0
 11
-21.08764190016733
 21
14.43820950083667
 31
0.0
  0
LINE
  5
452
330
1F
100
AcDbEntity
  8
2
  6
CONTINUOUS
370
25
 62
7
100
AcDbLine
 10
-22.53752805510313
 20
16.31235972448439
 30
0.0
 11
-21.19370791734531
 21
14.96853958672658
 31
0.0
  0
LINE
  5
453
330
1F
100
AcDbEntity
  8
2
  6
CONTINUOUS
370
25
 62
7
100
AcDbLine
 10
-22.46681737698447
 20
16.66591311507766
 30
0.0
 11
-21.29977393452329
 21
15.49886967261649
 31
0.0
  0
LINE
  5
454
330
1F
100
AcDbEntity
  8
2
  6
CONTINUOUS
370
25
 62
7
100
AcDbLine
 10
-22.39610669886581
 20
17.01946650567093
 30
0.0
 11
-21.40583995170127
 21
16.0291997585064
 31
0.0
  0
LINE
  5
455
330
1F
100
AcDbEntity
  8
2
  6
CONTINUOUS
370
25
 62
7
100
AcDbLine
 10
-22.32539602074716
 20
17.37301989626421
 30
0.0
 11
-21.51190596887926
 21
16.55952984439631
 31
0.0
  0
LINE
  5
456
330
1F
100
AcDbEntity
  8
2
  6
CONTINUOUS
370
25
 62
7
100
AcDbLine
 10
-22.25468534262851
 20
17.72657328685748
 30
0.0
 11
-21.61797198605724
 21
17.08985993028621
 31
0.0
  0
LINE
  5
457
330
1F
100
AcDbEntity
  8
2
  6
CONTINUOUS
370
25
 62
7
100
AcDbLine
 10
-22.18397466450985
 20
18.08012667745075
 30
0.0
 11
-21.72403800323522
 21
17.62019001617612
 31
0.0
  0
LINE
  5
458
330
1F
100
AcDbEntity
  8
2
  6
CONTINUOUS
370
25
 62
7
100
AcDbLine
 10
-22.1132639863912
 20
18.43368006804402
 30
0.0
 11
-21.8301040204132
 21
18.15052010206603
 31
0.0
  0
LINE
  5
459
330
1F
100
AcDbEntity
  8
2
  6
CONTINUOUS
370
25
 62
7
100
AcDbLine
 10
-22.04255330827254
 20
18.7872334586373
 30
0.0
 11
-21.93617003759118
 21
18.68085018795594
 31
0.0
  0
TEXT
  5
45A
330
1F
100
AcDbEntity
  8
2
  6
CONTINUOUS
370
25
 62
7
100
AcDbText
 10
-23.5
 20
-0.641666666666667
 30
0.0
 40
3.5
  1
38
 50
90.0
 72
     1
 11
-23.5
 21
2.275
 31
0.0
100
AcDbText
  0
CIRCLE
  5
45B
330
1F
100
AcDbEntity
  8
2
  6
CONTINUOUS
370
25
 62
7
100
AcDbCircle
 10
-25.25
 20
-2.625
 30
0.0
 40
1.4
  0
LINE
  5
45C
330
1F
100
AcDbEntity
  8
2
  6
CONTINUOUS
370
25
 62
7
100
AcDbLine
 10
-23.85
 20
-4.024999999999999
 30
0.0
 11
-26.65
 21
-1.224999999999999
 31
0.0
  0
LINE
  5
45D
330
1F
100
AcDbEntity
  8
2
  6
CONTINUOUS
370
25
 62
7
100
AcDbLine
 10
40.0
 20
-7.5
 30
0.0
 11
53.0
 21
-7.5
 31
0.0
  0
LINE
  5
45E
330
1F
100
AcDbEntity
  8
2
  6
CONTINUOUS
370
25
 62
7
100
AcDbLine
 10
53.0
 20
7.5
 30
0.0
 11
40.0
 21
7.5
 31
0.0
  0
LINE
  5
45F
330
1F
100
AcDbEntity
  8
2
  6
CONTINUOUS
370
25
 62
7
100
AcDbLine
 10
52.0
 20
-14.5
 30
0.0
 11
52.0
 21
14.5
 31
0.0
  0
LINE
  5
460
330
1F
100
AcDbEntity
  8
2
  6
CONTINUOUS
370
25
 62
7
100
AcDbLine
 10
52.0
 20
-7.5
 30
0.0
 11
53.0
 21
-12.5
 31
0.0
  0
LINE
  5
461
330
1F
100
AcDbEntity
  8
2
  6
CONTINUOUS
370
25
 62
7
100
AcDbLine
 10
53.0
 20
-12.5
 30
0.0
 11
51.0
 21
-12.5
 31
0.0
  0
LINE
  5
462
330
1F
100
AcDbEntity
  8
2
  6
CONTINUOUS
370
25
 62
7
100
AcDbLine
 10
51.0
 20
-12.5
 30
0.0
 11
52.0
 21
-7.5
 31
0.0
  0
LINE
  5
463
330
1F
100
AcDbEntity
  8
2
  6
CONTINUOUS
370
25
 62
7
100
AcDbLine
 10
52.84363160420395
 20
-12.5
 30
0.0
 11
52.97393860070066
 21
-12.36969300350329
 31
0.0
  0
LINE
  5
464
330
1F
100
AcDbEntity
  8
2
  6
CONTINUOUS
370
25
 62
7
100
AcDbLine
 10
52.41936753549201
 20
-12.5
 30
0.0
 11
52.903227922582
 21
-12.01613961291001
 31
0.0
  0
LINE
  5
465
330
1F
100
AcDbEntity
  8
2
  6
CONTINUOUS
370
25
 62
7
100
AcDbLine
 10
51.99510346678008
 20
-12.5
 30
0.0
 11
52.83251724446334
 21
-11.66258622231674
 31
0.0
  0
LINE
  5
466
330
1F
100
AcDbEntity
  8
2
  6
CONTINUOUS
370
25
 62
7
100
AcDbLine
 10
51.57083939806814
 20
-12.5
 30
0.0
 11
52.76180656634469
 21
-11.30903283172346
 31
0.0
  0
LINE
  5
467
330
1F
100
AcDbEntity
  8
2
  6
CONTINUOUS
370
25
 62
7
100
AcDbLine
 10
51.14657532935622
 20
-12.5
 30
0.0
 11
52.69109588822604
 21
-10.95547944113019
 31
0.0
  0
LINE
  5
468
330
1F
100
AcDbEntity
  8
2
  6
CONTINUOUS
370
25
 62
7
100
AcDbLine
 10
51.06942218483893
 20
-12.15288907580537
 30
0.0
 11
52.62038521010738
 21
-10.60192605053692
 31
0.0
  0
LINE
  5
469
330
1F
100
AcDbEntity
  8
2
  6
CONTINUOUS
370
25
 62
7
100
AcDbLine
 10
51.17548820201691
 20
-11.62255898991546
 30
0.0
 11
52.54967453198873
 21
-10.24837265994364
 31
0.0
  0
LINE
  5
46A
330
1F
100
AcDbEntity
  8
2
  6
CONTINUOUS
370
25
 62
7
100
AcDbLine
 10
51.28155421919489
 20
-11.09222890402554
 30
0.0
 11
52.47896385387006
 21
-9.894819269350371
 31
0.0
  0
LINE
  5
46B
330
1F
100
AcDbEntity
  8
2
  6
CONTINUOUS
370
25
 62
7
100
AcDbLine
 10
51.38762023637288
 20
-10.56189881813562
 30
0.0
 11
52.40825317575141
 21
-9.541265878757088
 31
0.0
  0
LINE
  5
46C
330
1F
100
AcDbEntity
  8
2
  6
CONTINUOUS
370
25
 62
7
100
AcDbLine
 10
51.49368625355086
 20
-10.03156873224571
 30
0.0
 11
52.33754249763276
 21
-9.187712488163811
 31
0.0
  0
LINE
  5
46D
330
1F
100
AcDbEntity
  8
2
  6
CONTINUOUS
370
25
 62
7
100
AcDbLine
 10
51.59975227072884
 20
-9.501238646355802
 30
0.0
 11
52.2668318195141
 21
-8.834159097570542
 31
0.0
  0
LINE
  5
46E
330
1F
100
AcDbEntity
  8
2
  6
CONTINUOUS
370
25
 62
7
100
AcDbLine
 10
51.70581828790682
 20
-8.970908560465887
 30
0.0
 11
52.19612114139545
 21
-8.480605706977258
 31
0.0
  0
LINE
  5
46F
330
1F
100
AcDbEntity
  8
2
  6
CONTINUOUS
370
25
 62
7
100
AcDbLine
 10
51.81188430508481
 20
-8.440578474575965
 30
0.0
 11
52.12541046327679
 21
-8.127052316383988
 31
0.0
  0
LINE
  5
470
330
1F
100
AcDbEntity
  8
2
  6
CONTINUOUS
370
25
 62
7
100
AcDbLine
 10
51.91795032226279
 20
-7.910248388686057
 30
0.0
 11
52.05469978515814
 21
-7.773498925790712
 31
0.0
  0
LINE
  5
471
330
1F
100
AcDbEntity
  8
2
  6
CONTINUOUS
370
25
 62
7
100
AcDbLine
 10
51.0180050421309
 20
-12.40997478934548
 30
0.0
 11
51.10803025278543
 21
-12.5
 31
0.0
  0
LINE
  5
472
330
1F
100
AcDbEntity
  8
2
  6
CONTINUOUS
370
25
 62
7
100
AcDbLine
 10
51.08871572024956
 20
-12.05642139875219
 30
0.0
 11
51.53229432149737
 21
-12.5
 31
0.0
  0
LINE
  5
473
330
1F
100
AcDbEntity
  8
2
  6
CONTINUOUS
370
25
 62
7
100
AcDbLine
 10
51.15942639836822
 20
-11.70286800815893
 30
0.0
 11
51.95655839020929
 21
-12.5
 31
0.0
  0
LINE
  5
474
330
1F
100
AcDbEntity
  8
2
  6
CONTINUOUS
370
25
 62
7
100
AcDbLine
 10
51.23013707648687
 20
-11.34931461756565
 30
0.0
 11
52.38082245892122
 21
-12.5
 31
0.0
  0
LINE
  5
475
330
1F
100
AcDbEntity
  8
2
  6
CONTINUOUS
370
25
 62
7
100
AcDbLine
 10
51.30084775460552
 20
-10.99576122697236
 30
0.0
 11
52.80508652763316
 21
-12.5
 31
0.0
  0
LINE
  5
476
330
1F
100
AcDbEntity
  8
2
  6
CONTINUOUS
370
25
 62
7
100
AcDbLine
 10
51.37155843272419
 20
-10.64220783637911
 30
0.0
 11
52.94266235091373
 21
-12.21331175456865
 31
0.0
  0
LINE
  5
477
330
1F
100
AcDbEntity
  8
2
  6
CONTINUOUS
370
25
 62
7
100
AcDbLine
 10
51.44226911084284
 20
-10.28865444578582
 30
0.0
 11
52.83659633373575
 21
-11.68298166867873
 31
0.0
  0
LINE
  5
478
330
1F
100
AcDbEntity
  8
2
  6
CONTINUOUS
370
25
 62
7
100
AcDbLine
 10
51.51297978896149
 20
-9.935101055192547
 30
0.0
 11
52.73053031655777
 21
-11.15265158278882
 31
0.0
  0
LINE
  5
479
330
1F
100
AcDbEntity
  8
2
  6
CONTINUOUS
370
25
 62
7
100
AcDbLine
 10
51.58369046708015
 20
-9.581547664599263
 30
0.0
 11
52.62446429937978
 21
-10.6223214968989
 31
0.0
  0
LINE
  5
47A
330
1F
100
AcDbEntity
  8
2
  6
CONTINUOUS
370
25
 62
7
100
AcDbLine
 10
51.6544011451988
 20
-9.227994274005994
 30
0.0
 11
52.5183982822018
 21
-10.09199141100899
 31
0.0
  0
LINE
  5
47B
330
1F
100
AcDbEntity
  8
2
  6
CONTINUOUS
370
25
 62
7
100
AcDbLine
 10
51.72511182331746
 20
-8.874440883412717
 30
0.0
 11
52.41233226502382
 21
-9.561661325119083
 31
0.0
  0
LINE
  5
47C
330
1F
100
AcDbEntity
  8
2
  6
CONTINUOUS
370
25
 62
7
100
AcDbLine
 10
51.79582250143611
 20
-8.520887492819426
 30
0.0
 11
52.30626624784583
 21
-9.031331239229154
 31
0.0
  0
LINE
  5
47D
330
1F
100
AcDbEntity
  8
2
  6
CONTINUOUS
370
25
 62
7
100
AcDbLine
 10
51.86653317955477
 20
-8.167334102226157
 30
0.0
 11
52.20020023066785
 21
-8.501001153339239
 31
0.0
  0
LINE
  5
47E
330
1F
100
AcDbEntity
  8
2
  6
CONTINUOUS
370
25
 62
7
100
AcDbLine
 10
51.93724385767342
 20
-7.81378071163288
 30
0.0
 11
52.09413421348987
 21
-7.970671067449331
 31
0.0
  0
LINE
  5
47F
330
1F
100
AcDbEntity
  8
2
  6
CONTINUOUS
370
25
 62
7
100
AcDbLine
 10
52.0
 20
7.5
 30
0.0
 11
51.0
 21
12.5
 31
0.0
  0
LINE
  5
480
330
1F
100
AcDbEntity
  8
2
  6
CONTINUOUS
370
25
 62
7
100
AcDbLine
 10
51.0
 20
12.5
 30
0.0
 11
53.0
 21
12.5
 31
0.0
  0
LINE
  5
481
330
1F
100
AcDbEntity
  8
2
  6
CONTINUOUS
370
25
 62
7
100
AcDbLine
 10
53.0
 20
12.5
 30
0.0
 11
52.0
 21
7.5
 31
0.0
  0
LINE
  5
482
330
1F
100
AcDbEntity
  8
2
  6
CONTINUOUS
370
25
 62
7
100
AcDbLine
 10
51.98925244937345
 20
7.553737753132751
 30
0.0
 11
52.01612132593983
 21
7.580606629699126
 31
0.0
  0
LINE
  5
483
330
1F
100
AcDbEntity
  8
2
  6
CONTINUOUS
370
25
 62
7
100
AcDbLine
 10
51.91854177125479
 20
7.907291143726013
 30
0.0
 11
52.12218734311781
 21
8.110936715589034
 31
0.0
  0
LINE
  5
484
330
1F
100
AcDbEntity
  8
2
  6
CONTINUOUS
370
25
 62
7
100
AcDbLine
 10
51.84783109313614
 20
8.260844534319297
 30
0.0
 11
52.2282533602958
 21
8.641266801478956
 31
0.0
  0
LINE
  5
485
330
1F
100
AcDbEntity
  8
2
  6
CONTINUOUS
370
25
 62
7
100
AcDbLine
 10
51.77712041501749
 20
8.614397924912574
 30
0.0
 11
52.33431937747378
 21
9.171596887368864
 31
0.0
  0
LINE
  5
486
330
1F
100
AcDbEntity
  8
2
  6
CONTINUOUS
370
25
 62
7
100
AcDbLine
 10
51.70640973689883
 20
8.96795131550585
 30
0.0
 11
52.44038539465176
 21
9.701926973258779
 31
0.0
  0
LINE
  5
487
330
1F
100
AcDbEntity
  8
2
  6
CONTINUOUS
370
25
 62
7
100
AcDbLine
 10
51.63569905878018
 20
9.321504706099127
 30
0.0
 11
52.54645141182974
 21
10.23225705914869
 31
0.0
  0
LINE
  5
488
330
1F
100
AcDbEntity
  8
2
  6
CONTINUOUS
370
25
 62
7
100
AcDbLine
 10
51.56498838066151
 20
9.675058096692396
 30
0.0
 11
52.65251742900772
 21
10.76258714503861
 31
0.0
  0
LINE
  5
489
330
1F
100
AcDbEntity
  8
2
  6
CONTINUOUS
370
25
 62
7
100
AcDbLine
 10
51.49427770254286
 20
10.02861148728567
 30
0.0
 11
52.75858344618571
 21
11.29291723092852
 31
0.0
  0
LINE
  5
48A
330
1F
100
AcDbEntity
  8
2
  6
CONTINUOUS
370
25
 62
7
100
AcDbLine
 10
51.42356702442421
 20
10.38216487787896
 30
0.0
 11
52.86464946336369
 21
11.82324731681844
 31
0.0
  0
LINE
  5
48B
330
1F
100
AcDbEntity
  8
2
  6
CONTINUOUS
370
25
 62
7
100
AcDbLine
 10
51.35285634630555
 20
10.73571826847223
 30
0.0
 11
52.97071548054167
 21
12.35357740270835
 31
0.0
  0
LINE
  5
48C
330
1F
100
AcDbEntity
  8
2
  6
CONTINUOUS
370
25
 62
7
100
AcDbLine
 10
51.2821456681869
 20
11.08927165906551
 30
0.0
 11
52.69287400912139
 21
12.5
 31
0.0
  0
LINE
  5
48D
330
1F
100
AcDbEntity
  8
2
  6
CONTINUOUS
370
25
 62
7
100
AcDbLine
 10
51.21143499006823
 20
11.44282504965877
 30
0.0
 11
52.26860994040946
 21
12.5
 31
0.0
  0
LINE
  5
48E
330
1F
100
AcDbEntity
  8
2
  6
CONTINUOUS
370
25
 62
7
100
AcDbLine
 10
51.14072431194958
 20
11.79637844025206
 30
0.0
 11
51.84434587169753
 21
12.5
 31
0.0
  0
LINE
  5
48F
330
1F
100
AcDbEntity
  8
2
  6
CONTINUOUS
370
25
 62
7
100
AcDbLine
 10
51.07001363383093
 20
12.14993183084533
 30
0.0
 11
51.4200818029856
 21
12.5
 31
0.0
  0
LINE
  5
490
330
1F
100
AcDbEntity
  8
2
  6
CONTINUOUS
370
25
 62
7
100
AcDbLine
 10
51.91969157790452
 20
7.901542110477401
 30
0.0
 11
52.05353894806365
 21
7.767694740318262
 31
0.0
  0
LINE
  5
491
330
1F
100
AcDbEntity
  8
2
  6
CONTINUOUS
370
25
 62
7
100
AcDbLine
 10
51.81362556072654
 20
8.431872196367308
 30
0.0
 11
52.1242496261823
 21
8.121248130911539
 31
0.0
  0
LINE
  5
492
330
1F
100
AcDbEntity
  8
2
  6
CONTINUOUS
370
25
 62
7
100
AcDbLine
 10
51.70755954354856
 20
8.962202282257223
 30
0.0
 11
52.19496030430096
 21
8.474801521504816
 31
0.0
  0
LINE
  5
493
330
1F
100
AcDbEntity
  8
2
  6
CONTINUOUS
370
25
 62
7
100
AcDbLine
 10
51.60149352637058
 20
9.492532368147138
 30
0.0
 11
52.26567098241961
 21
8.8283549120981
 31
0.0
  0
LINE
  5
494
330
1F
100
AcDbEntity
  8
2
  6
CONTINUOUS
370
25
 62
7
100
AcDbLine
 10
51.49542750919259
 20
10.02286245403705
 30
0.0
 11
52.33638166053827
 21
9.181908302691376
 31
0.0
  0
LINE
  5
495
330
1F
100
AcDbEntity
  8
2
  6
CONTINUOUS
370
25
 62
7
100
AcDbLine
 10
51.3893614920146
 20
10.55319253992698
 30
0.0
 11
52.40709233865693
 21
9.535461693284645
 31
0.0
  0
LINE
  5
496
330
1F
100
AcDbEntity
  8
2
  6
CONTINUOUS
370
25
 62
7
100
AcDbLine
 10
51.28329547483662
 20
11.08352262581688
 30
0.0
 11
52.47780301677558
 21
9.889015083877922
 31
0.0
  0
LINE
  5
497
330
1F
100
AcDbEntity
  8
2
  6
CONTINUOUS
370
25
 62
7
100
AcDbLine
 10
51.17722945765864
 20
11.6138527117068
 30
0.0
 11
52.54851369489425
 21
10.24256847447119
 31
0.0
  0
LINE
  5
498
330
1F
100
AcDbEntity
  8
2
  6
CONTINUOUS
370
25
 62
7
100
AcDbLine
 10
51.07116344048065
 20
12.14418279759671
 30
0.0
 11
52.6192243730129
 21
10.59612186506448
 31
0.0
  0
LINE
  5
499
330
1F
100
AcDbEntity
  8
2
  6
CONTINUOUS
370
25
 62
7
100
AcDbLine
 10
51.1396103067893
 20
12.5
 30
0.0
 11
52.68993505113156
 21
10.94967525565774
 31
0.0
  0
LINE
  5
49A
330
1F
100
AcDbEntity
  8
2
  6
CONTINUOUS
370
25
 62
7
100
AcDbLine
 10
51.56387437550123
 20
12.5
 30
0.0
 11
52.76064572925021
 21
11.30322864625102
 31
0.0
  0
LINE
  5
49B
330
1F
100
AcDbEntity
  8
2
  6
CONTINUOUS
370
25
 62
7
100
AcDbLine
 10
51.98813844421316
 20
12.5
 30
0.0
 11
52.83135640736886
 21
11.65678203684431
 31
0.0
  0
LINE
  5
49C
330
1F
100
AcDbEntity
  8
2
  6
CONTINUOUS
370
25
 62
7
100
AcDbLine
 10
52.4124025129251
 20
12.5
 30
0.0
 11
52.90206708548752
 21
12.01033542743758
 31
0.0
  0
LINE
  5
49D
330
1F
100
AcDbEntity
  8
2
  6
CONTINUOUS
370
25
 62
7
100
AcDbLine
 10
52.83666658163703
 20
12.5
 30
0.0
 11
52.97277776360617
 21
12.36388881803087
 31
0.0
  0
TEXT
  5
49E
330
1F
100
AcDbEntity
  8
2
  6
CONTINUOUS
370
25
 62
7
100
AcDbText
 10
50.5
 20
-0.0583333333333336
 30
0.0
 40
3.5
  1
15
 50
90.0
 72
     1
 11
50.5
 21
2.275
 31
0.0
100
AcDbText
  0
CIRCLE
  5
49F
330
1F
100
AcDbEntity
  8
2
  6
CONTINUOUS
370
25
 62
7
100
AcDbCircle
 10
48.75
 20
-2.625
 30
0.0
 40
1.4
  0
LINE
  5
4A0
330
1F
100
AcDbEntity
  8
2
  6
CONTINUOUS
370
25
 62
7
100
AcDbLine
 10
50.15
 20
-4.024999999999999
 30
0.0
 11
47.35
 21
-1.224999999999999
 31
0.0
  0
LINE
  5
4A1
330
1F
100
AcDbEntity
  8
2
  6
CONTINUOUS
370
25
 62
7
100
AcDbLine
 10
36.5
 20
-26.36396103
 30
0.0
 11
36.5
 21
-37.92666868
 31
0.0
  0
LINE
  5
4A2
330
1F
100
AcDbEntity
  8
2
  6
CONTINUOUS
370
25
 62
7
100
AcDbLine
 10
40.0
 20
-37.92666868
 30
0.0
 11
40.0
 21
-20.0
 31
0.0
  0
LINE
  5
4A3
330
1F
100
AcDbEntity
  8
2
  6
CONTINUOUS
370
25
 62
7
100
AcDbLine
 10
29.5
 20
-36.92666868
 30
0.0
 11
55.925
 21
-36.92666868
 31
0.0
  0
LINE
  5
4A4
330
1F
100
AcDbEntity
  8
2
  6
CONTINUOUS
370
25
 62
7
100
AcDbLine
 10
36.5
 20
-36.92666868
 30
0.0
 11
31.5
 21
-37.92666868
 31
0.0
  0
LINE
  5
4A5
330
1F
100
AcDbEntity
  8
2
  6
CONTINUOUS
370
25
 62
7
100
AcDbLine
 10
31.5
 20
-37.92666868
 30
0.0
 11
31.5
 21
-35.92666868
 31
0.0
  0
LINE
  5
4A6
330
1F
100
AcDbEntity
  8
2
  6
CONTINUOUS
370
25
 62
7
100
AcDbLine
 10
31.5
 20
-35.92666868
 30
0.0
 11
36.5
 21
-36.92666868
 31
0.0
  0
LINE
  5
4A7
330
1F
100
AcDbEntity
  8
2
  6
CONTINUOUS
370
25
 62
7
100
AcDbLine
 10
35.98495329389698
 20
-37.02967802122061
 30
0.0
 11
36.15663552926466
 21
-36.85799578585293
 31
0.0
  0
LINE
  5
4A8
330
1F
100
AcDbEntity
  8
2
  6
CONTINUOUS
370
25
 62
7
100
AcDbLine
 10
35.45462320800706
 20
-37.13574403839859
 30
0.0
 11
35.80308213867139
 21
-36.78728510773427
 31
0.0
  0
LINE
  5
4A9
330
1F
100
AcDbEntity
  8
2
  6
CONTINUOUS
370
25
 62
7
100
AcDbLine
 10
34.92429312211714
 20
-37.24181005557658
 30
0.0
 11
35.4495287480781
 21
-36.71657442961561
 31
0.0
  0
LINE
  5
4AA
330
1F
100
AcDbEntity
  8
2
  6
CONTINUOUS
370
25
 62
7
100
AcDbLine
 10
34.39396303622723
 20
-37.34787607275456
 30
0.0
 11
35.09597535748482
 21
-36.64586375149695
 31
0.0
  0
LINE
  5
4AB
330
1F
100
AcDbEntity
  8
2
  6
CONTINUOUS
370
25
 62
7
100
AcDbLine
 10
33.86363295033732
 20
-37.45394208993254
 30
0.0
 11
34.74242196689155
 21
-36.57515307337831
 31
0.0
  0
LINE
  5
4AC
330
1F
100
AcDbEntity
  8
2
  6
CONTINUOUS
370
25
 62
7
100
AcDbLine
 10
33.3333028644474
 20
-37.56000810711052
 30
0.0
 11
34.38886857629827
 21
-36.50444239525965
 31
0.0
  0
LINE
  5
4AD
330
1F
100
AcDbEntity
  8
2
  6
CONTINUOUS
370
25
 62
7
100
AcDbLine
 10
32.80297277855748
 20
-37.66607412428851
 30
0.0
 11
34.035315185705
 21
-36.43373171714099
 31
0.0
  0
LINE
  5
4AE
330
1F
100
AcDbEntity
  8
2
  6
CONTINUOUS
370
25
 62
7
100
AcDbLine
 10
32.27264269266757
 20
-37.77214014146649
 30
0.0
 11
33.68176179511172
 21
-36.36302103902234
 31
0.0
  0
LINE
  5
4AF
330
1F
100
AcDbEntity
  8
2
  6
CONTINUOUS
370
25
 62
7
100
AcDbLine
 10
31.74231260677765
 20
-37.87820615864447
 30
0.0
 11
33.32820840451844
 21
-36.29231036090368
 31
0.0
  0
LINE
  5
4B0
330
1F
100
AcDbEntity
  8
2
  6
CONTINUOUS
370
25
 62
7
100
AcDbLine
 10
31.5
 20
-37.69625469671021
 30
0.0
 11
32.97465501392517
 21
-36.22159968278503
 31
0.0
  0
LINE
  5
4B1
330
1F
100
AcDbEntity
  8
2
  6
CONTINUOUS
370
25
 62
7
100
AcDbLine
 10
31.5
 20
-37.27199062799828
 30
0.0
 11
32.6211016233319
 21
-36.15088900466638
 31
0.0
  0
LINE
  5
4B2
330
1F
100
AcDbEntity
  8
2
  6
CONTINUOUS
370
25
 62
7
100
AcDbLine
 10
31.5
 20
-36.84772655928634
 30
0.0
 11
32.26754823273862
 21
-36.08017832654772
 31
0.0
  0
LINE
  5
4B3
330
1F
100
AcDbEntity
  8
2
  6
CONTINUOUS
370
25
 62
7
100
AcDbLine
 10
31.5
 20
-36.42346249057441
 30
0.0
 11
31.91399484214534
 21
-36.00946764842907
 31
0.0
  0
LINE
  5
4B4
330
1F
100
AcDbEntity
  8
2
  6
CONTINUOUS
370
25
 62
7
100
AcDbLine
 10
31.5
 20
-35.99919842186247
 30
0.0
 11
31.56044145155206
 21
-35.93875697031041
 31
0.0
  0
LINE
  5
4B5
330
1F
100
AcDbEntity
  8
2
  6
CONTINUOUS
370
25
 62
7
100
AcDbLine
 10
31.5
 20
-37.66967451516194
 30
0.0
 11
31.71416180403171
 21
-37.88383631919366
 31
0.0
  0
LINE
  5
4B6
330
1F
100
AcDbEntity
  8
2
  6
CONTINUOUS
370
25
 62
7
100
AcDbLine
 10
31.5
 20
-37.24541044645001
 30
0.0
 11
32.06771519462499
 21
-37.813125641075
 31
0.0
  0
LINE
  5
4B7
330
1F
100
AcDbEntity
  8
2
  6
CONTINUOUS
370
25
 62
7
100
AcDbLine
 10
31.5
 20
-36.82114637773807
 30
0.0
 11
32.42126858521827
 21
-37.74241496295635
 31
0.0
  0
LINE
  5
4B8
330
1F
100
AcDbEntity
  8
2
  6
CONTINUOUS
370
25
 62
7
100
AcDbLine
 10
31.5
 20
-36.39688230902615
 30
0.0
 11
32.77482197581155
 21
-37.67170428483769
 31
0.0
  0
LINE
  5
4B9
330
1F
100
AcDbEntity
  8
2
  6
CONTINUOUS
370
25
 62
7
100
AcDbLine
 10
31.5
 20
-35.97261824031422
 30
0.0
 11
33.12837536640483
 21
-37.60099360671904
 31
0.0
  0
LINE
  5
4BA
330
1F
100
AcDbEntity
  8
2
  6
CONTINUOUS
370
25
 62
7
100
AcDbLine
 10
31.97289313549714
 20
-36.02124730709943
 30
0.0
 11
33.48192875699811
 21
-37.53028292860039
 31
0.0
  0
LINE
  5
4BB
330
1F
100
AcDbEntity
  8
2
  6
CONTINUOUS
370
25
 62
7
100
AcDbLine
 10
32.50322322138706
 20
-36.12731332427741
 30
0.0
 11
33.83548214759138
 21
-37.45957225048172
 31
0.0
  0
LINE
  5
4BC
330
1F
100
AcDbEntity
  8
2
  6
CONTINUOUS
370
25
 62
7
100
AcDbLine
 10
33.03355330727698
 20
-36.2333793414554
 30
0.0
 11
34.18903553818465
 21
-37.38886157236307
 31
0.0
  0
LINE
  5
4BD
330
1F
100
AcDbEntity
  8
2
  6
CONTINUOUS
370
25
 62
7
100
AcDbLine
 10
33.5638833931669
 20
-36.33944535863338
 30
0.0
 11
34.54258892877794
 21
-37.31815089424441
 31
0.0
  0
LINE
  5
4BE
330
1F
100
AcDbEntity
  8
2
  6
CONTINUOUS
370
25
 62
7
100
AcDbLine
 10
34.09421347905682
 20
-36.44551137581136
 30
0.0
 11
34.89614231937122
 21
-37.24744021612575
 31
0.0
  0
LINE
  5
4BF
330
1F
100
AcDbEntity
  8
2
  6
CONTINUOUS
370
25
 62
7
100
AcDbLine
 10
34.62454356494673
 20
-36.55157739298934
 30
0.0
 11
35.2496957099645
 21
-37.17672953800711
 31
0.0
  0
LINE
  5
4C0
330
1F
100
AcDbEntity
  8
2
  6
CONTINUOUS
370
25
 62
7
100
AcDbLine
 10
35.15487365083665
 20
-36.65764341016732
 30
0.0
 11
35.60324910055778
 21
-37.10601885988845
 31
0.0
  0
LINE
  5
4C1
330
1F
100
AcDbEntity
  8
2
  6
CONTINUOUS
370
25
 62
7
100
AcDbLine
 10
35.68520373672656
 20
-36.76370942734531
 30
0.0
 11
35.95680249115105
 21
-37.03530818176979
 31
0.0
  0
LINE
  5
4C2
330
1F
100
AcDbEntity
  8
2
  6
CONTINUOUS
370
25
 62
7
100
AcDbLine
 10
36.21553382261649
 20
-36.8697754445233
 30
0.0
 11
36.31035588174432
 21
-36.96459750365113
 31
0.0
  0
LINE
  5
4C3
330
1F
100
AcDbEntity
  8
2
  6
CONTINUOUS
370
25
 62
7
100
AcDbLine
 10
40.0
 20
-36.92666868
 30
0.0
 11
45.0
 21
-35.92666868
 31
0.0
  0
LINE
  5
4C4
330
1F
100
AcDbEntity
  8
2
  6
CONTINUOUS
370
25
 62
7
100
AcDbLine
 10
45.0
 20
-35.92666868
 30
0.0
 11
45.0
 21
-37.92666868
 31
0.0
  0
LINE
  5
4C5
330
1F
100
AcDbEntity
  8
2
  6
CONTINUOUS
370
25
 62
7
100
AcDbLine
 10
45.0
 20
-37.92666868
 30
0.0
 11
40.0
 21
-36.92666868
 31
0.0
  0
LINE
  5
4C6
330
1F
100
AcDbEntity
  8
2
  6
CONTINUOUS
370
25
 62
7
100
AcDbLine
 10
44.89622788917902
 20
-37.9059142578358
 30
0.0
 11
45.0
 21
-37.80214214701482
 31
0.0
  0
LINE
  5
4C7
330
1F
100
AcDbEntity
  8
2
  6
CONTINUOUS
370
25
 62
7
100
AcDbLine
 10
44.54267449858573
 20
-37.83520357971715
 30
0.0
 11
45.0
 21
-37.37787807830287
 31
0.0
  0
LINE
  5
4C8
330
1F
100
AcDbEntity
  8
2
  6
CONTINUOUS
370
25
 62
7
100
AcDbLine
 10
44.18912110799246
 20
-37.76449290159849
 30
0.0
 11
45.0
 21
-36.95361400959095
 31
0.0
  0
LINE
  5
4C9
330
1F
100
AcDbEntity
  8
2
  6
CONTINUOUS
370
25
 62
7
100
AcDbLine
 10
43.83556771739917
 20
-37.69378222347983
 30
0.0
 11
45.0
 21
-36.529349940879
 31
0.0
  0
LINE
  5
4CA
330
1F
100
AcDbEntity
  8
2
  6
CONTINUOUS
370
25
 62
7
100
AcDbLine
 10
43.4820143268059
 20
-37.62307154536118
 30
0.0
 11
45.0
 21
-36.10508587216708
 31
0.0
  0
LINE
  5
4CB
330
1F
100
AcDbEntity
  8
2
  6
CONTINUOUS
370
25
 62
7
100
AcDbLine
 10
43.12846093621261
 20
-37.55236086724252
 30
0.0
 11
44.69269140431891
 21
-35.98813039913622
 31
0.0
  0
LINE
  5
4CC
330
1F
100
AcDbEntity
  8
2
  6
CONTINUOUS
370
25
 62
7
100
AcDbLine
 10
42.77490754561934
 20
-37.48165018912387
 30
0.0
 11
44.16236131842901
 21
-36.0941964163142
 31
0.0
  0
LINE
  5
4CD
330
1F
100
AcDbEntity
  8
2
  6
CONTINUOUS
370
25
 62
7
100
AcDbLine
 10
42.42135415502605
 20
-37.41093951100521
 30
0.0
 11
43.63203123253908
 21
-36.20026243349218
 31
0.0
  0
LINE
  5
4CE
330
1F
100
AcDbEntity
  8
2
  6
CONTINUOUS
370
25
 62
7
100
AcDbLine
 10
42.06780076443279
 20
-37.34022883288655
 30
0.0
 11
43.10170114664918
 21
-36.30632845067016
 31
0.0
  0
LINE
  5
4CF
330
1F
100
AcDbEntity
  8
2
  6
CONTINUOUS
370
25
 62
7
100
AcDbLine
 10
41.7142473738395
 20
-37.26951815476789
 30
0.0
 11
42.57137106075924
 21
-36.41239446784815
 31
0.0
  0
LINE
  5
4D0
330
1F
100
AcDbEntity
  8
2
  6
CONTINUOUS
370
25
 62
7
100
AcDbLine
 10
41.36069398324621
 20
-37.19880747664924
 30
0.0
 11
42.04104097486933
 21
-36.51846048502613
 31
0.0
  0
LINE
  5
4D1
330
1F
100
AcDbEntity
  8
2
  6
CONTINUOUS
370
25
 62
7
100
AcDbLine
 10
41.00714059265294
 20
-37.12809679853058
 30
0.0
 11
41.51071088897941
 21
-36.62452650220412
 31
0.0
  0
LINE
  5
4D2
330
1F
100
AcDbEntity
  8
2
  6
CONTINUOUS
370
25
 62
7
100
AcDbLine
 10
40.65358720205966
 20
-37.05738612041193
 30
0.0
 11
40.98038080308949
 21
-36.7305925193821
 31
0.0
  0
LINE
  5
4D3
330
1F
100
AcDbEntity
  8
2
  6
CONTINUOUS
370
25
 62
7
100
AcDbLine
 10
40.30003381146638
 20
-36.98667544229328
 30
0.0
 11
40.45005071719957
 21
-36.83665853656009
 31
0.0
  0
LINE
  5
4D4
330
1F
100
AcDbEntity
  8
2
  6
CONTINUOUS
370
25
 62
7
100
AcDbLine
 10
40.26731769141289
 20
-36.87320514171742
 30
0.0
 11
40.40097653711933
 21
-37.00686398742386
 31
0.0
  0
LINE
  5
4D5
330
1F
100
AcDbEntity
  8
2
  6
CONTINUOUS
370
25
 62
7
100
AcDbLine
 10
40.62087108200617
 20
-36.80249446359876
 30
0.0
 11
40.93130662300926
 21
-37.11293000460185
 31
0.0
  0
LINE
  5
4D6
330
1F
100
AcDbEntity
  8
2
  6
CONTINUOUS
370
25
 62
7
100
AcDbLine
 10
40.97442447259945
 20
-36.73178378548011
 30
0.0
 11
41.46163670889917
 21
-37.21899602177983
 31
0.0
  0
LINE
  5
4D7
330
1F
100
AcDbEntity
  8
2
  6
CONTINUOUS
370
25
 62
7
100
AcDbLine
 10
41.32797786319273
 20
-36.66107310736145
 30
0.0
 11
41.99196679478909
 21
-37.32506203895782
 31
0.0
  0
LINE
  5
4D8
330
1F
100
AcDbEntity
  8
2
  6
CONTINUOUS
370
25
 62
7
100
AcDbLine
 10
41.68153125378601
 20
-36.5903624292428
 30
0.0
 11
42.52229688067901
 21
-37.4311280561358
 31
0.0
  0
LINE
  5
4D9
330
1F
100
AcDbEntity
  8
2
  6
CONTINUOUS
370
25
 62
7
100
AcDbLine
 10
42.03508464437929
 20
-36.51965175112414
 30
0.0
 11
43.05262696656893
 21
-37.53719407331378
 31
0.0
  0
LINE
  5
4DA
330
1F
100
AcDbEntity
  8
2
  6
CONTINUOUS
370
25
 62
7
100
AcDbLine
 10
42.38863803497257
 20
-36.44894107300549
 30
0.0
 11
43.58295705245885
 21
-37.64326009049176
 31
0.0
  0
LINE
  5
4DB
330
1F
100
AcDbEntity
  8
2
  6
CONTINUOUS
370
25
 62
7
100
AcDbLine
 10
42.74219142556584
 20
-36.37823039488683
 30
0.0
 11
44.11328713834877
 21
-37.74932610766975
 31
0.0
  0
LINE
  5
4DC
330
1F
100
AcDbEntity
  8
2
  6
CONTINUOUS
370
25
 62
7
100
AcDbLine
 10
43.09574481615912
 20
-36.30751971676818
 30
0.0
 11
44.64361722423869
 21
-37.85539212484774
 31
0.0
  0
LINE
  5
4DD
330
1F
100
AcDbEntity
  8
2
  6
CONTINUOUS
370
25
 62
7
100
AcDbLine
 10
43.4492982067524
 20
-36.23680903864953
 30
0.0
 11
45.0
 21
-37.78751083189712
 31
0.0
  0
LINE
  5
4DE
330
1F
100
AcDbEntity
  8
2
  6
CONTINUOUS
370
25
 62
7
100
AcDbLine
 10
43.80285159734568
 20
-36.16609836053087
 30
0.0
 11
45.0
 21
-37.36324676318518
 31
0.0
  0
LINE
  5
4DF
330
1F
100
AcDbEntity
  8
2
  6
CONTINUOUS
370
25
 62
7
100
AcDbLine
 10
44.15640498793896
 20
-36.09538768241221
 30
0.0
 11
45.0
 21
-36.93898269447325
 31
0.0
  0
LINE
  5
4E0
330
1F
100
AcDbEntity
  8
2
  6
CONTINUOUS
370
25
 62
7
100
AcDbLine
 10
44.50995837853223
 20
-36.02467700429355
 30
0.0
 11
45.0
 21
-36.51471862576132
 31
0.0
  0
LINE
  5
4E1
330
1F
100
AcDbEntity
  8
2
  6
CONTINUOUS
370
25
 62
7
100
AcDbLine
 10
44.86351176912551
 20
-35.95396632617489
 30
0.0
 11
45.0
 21
-36.09045455704938
 31
0.0
  0
TEXT
  5
4E2
330
1F
100
AcDbEntity
  8
2
  6
CONTINUOUS
370
25
 62
7
100
AcDbText
 10
46.9625
 20
-35.42666868
 30
0.0
 40
3.5
  1
3.5
 72
     1
 11
50.4625
 21
-35.42666868
 31
0.0
100
AcDbText
  0
LINE
  5
4E3
330
1F
100
AcDbEntity
  8
SK2
  6
CONTINUOUS
370
25
 62
7
100
AcDbLine
 10
-0.0000000000000015
 20
0.0
 30
0.0
 11
0.0000000000000014
 21
47.92666868
 31
0.0
  0
LINE
  5
4E4
330
1F
100
AcDbEntity
  8
SK2
  6
CONTINUOUS
370
25
 62
7
100
AcDbLine
 10
40.0
 20
47.92666868
 30
0.0
 11
40.0
 21
20.0
 31
0.0
  0
LINE
  5
4E5
330
1F
100
AcDbEntity
  8
SK2
  6
CONTINUOUS
370
25
 62
7
100
AcDbLine
 10
0.0
 20
46.92666868
 30
0.0
 11
40.0
 21
46.92666868
 31
0.0
  0
LINE
  5
4E6
330
1F
100
AcDbEntity
  8
SK2
  6
CONTINUOUS
370
25
 62
7
100
AcDbLine
 10
0.0
 20
46.92666868
 30
0.0
 11
5.0
 21
47.92666868
 31
0.0
  0
LINE
  5
4E7
330
1F
100
AcDbEntity
  8
SK2
  6
CONTINUOUS
370
25
 62
7
100
AcDbLine
 10
5.0
 20
47.92666868
 30
0.0
 11
5.0
 21
45.92666868
 31
0.0
  0
LINE
  5
4E8
330
1F
100
AcDbEntity
  8
SK2
  6
CONTINUOUS
370
25
 62
7
100
AcDbLine
 10
5.0
 20
45.92666868
 30
0.0
 11
0.0
 21
46.92666868
 31
0.0
  0
LINE
  5
4E9
330
1F
100
AcDbEntity
  8
SK2
  6
CONTINUOUS
370
25
 62
7
100
AcDbLine
 10
4.810878345785823
 20
45.96449301084284
 30
0.0
 11
5.0
 21
46.15361466505701
 31
0.0
  0
LINE
  5
4EA
330
1F
100
AcDbEntity
  8
SK2
  6
CONTINUOUS
370
25
 62
7
100
AcDbLine
 10
4.457324955192544
 20
46.03520368896149
 30
0.0
 11
5.0
 21
46.57787873376895
 31
0.0
  0
LINE
  5
4EB
330
1F
100
AcDbEntity
  8
SK2
  6
CONTINUOUS
370
25
 62
7
100
AcDbLine
 10
4.103771564599264
 20
46.10591436708015
 30
0.0
 11
5.0
 21
47.00214280248088
 31
0.0
  0
LINE
  5
4EC
330
1F
100
AcDbEntity
  8
SK2
  6
CONTINUOUS
370
25
 62
7
100
AcDbLine
 10
3.750218174005992
 20
46.1766250451988
 30
0.0
 11
5.0
 21
47.42640687119281
 31
0.0
  0
LINE
  5
4ED
330
1F
100
AcDbEntity
  8
SK2
  6
CONTINUOUS
370
25
 62
7
100
AcDbLine
 10
3.396664783412713
 20
46.24733572331746
 30
0.0
 11
5.0
 21
47.85067093990475
 31
0.0
  0
LINE
  5
4EE
330
1F
100
AcDbEntity
  8
SK2
  6
CONTINUOUS
370
25
 62
7
100
AcDbLine
 10
3.043111392819439
 20
46.31804640143611
 30
0.0
 11
4.564667089229161
 21
47.83960209784583
 31
0.0
  0
LINE
  5
4EF
330
1F
100
AcDbEntity
  8
SK2
  6
CONTINUOUS
370
25
 62
7
100
AcDbLine
 10
2.68955800222616
 20
46.38875707955476
 30
0.0
 11
4.034337003339243
 21
47.73353608066785
 31
0.0
  0
LINE
  5
4F0
330
1F
100
AcDbEntity
  8
SK2
  6
CONTINUOUS
370
25
 62
7
100
AcDbLine
 10
2.336004611632887
 20
46.45946775767342
 30
0.0
 11
3.504006917449333
 21
47.62747006348987
 31
0.0
  0
LINE
  5
4F1
330
1F
100
AcDbEntity
  8
SK2
  6
CONTINUOUS
370
25
 62
7
100
AcDbLine
 10
1.982451221039608
 20
46.53017843579207
 30
0.0
 11
2.973676831559414
 21
47.52140404631188
 31
0.0
  0
LINE
  5
4F2
330
1F
100
AcDbEntity
  8
SK2
  6
CONTINUOUS
370
25
 62
7
100
AcDbLine
 10
1.628897830446335
 20
46.60088911391073
 30
0.0
 11
2.443346745669504
 21
47.4153380291339
 31
0.0
  0
LINE
  5
4F3
330
1F
100
AcDbEntity
  8
SK2
  6
CONTINUOUS
370
25
 62
7
100
AcDbLine
 10
1.275344439853056
 20
46.67159979202939
 30
0.0
 11
1.913016659779585
 21
47.30927201195592
 31
0.0
  0
LINE
  5
4F4
330
1F
100
AcDbEntity
  8
SK2
  6
CONTINUOUS
370
25
 62
7
100
AcDbLine
 10
0.9217910492597827
 20
46.74231047014804
 30
0.0
 11
1.382686573889675
 21
47.20320599477793
 31
0.0
  0
LINE
  5
4F5
330
1F
100
AcDbEntity
  8
SK2
  6
CONTINUOUS
370
25
 62
7
100
AcDbLine
 10
0.5682376586665036
 20
46.8130211482667
 30
0.0
 11
0.8523564879997558
 21
47.09713997759995
 31
0.0
  0
LINE
  5
4F6
330
1F
100
AcDbEntity
  8
SK2
  6
CONTINUOUS
370
25
 62
7
100
AcDbLine
 10
0.2146842680732302
 20
46.88373182638535
 30
0.0
 11
0.3220264021098456
 21
46.99107396042197
 31
0.0
  0
LINE
  5
4F7
330
1F
100
AcDbEntity
  8
SK2
  6
CONTINUOUS
370
25
 62
7
100
AcDbLine
 10
0.1388691225200194
 20
46.954442504504
 30
0.0
 11
0.2083036837800292
 21
46.88500794324399
 31
0.0
  0
LINE
  5
4F8
330
1F
100
AcDbEntity
  8
SK2
  6
CONTINUOUS
370
25
 62
7
100
AcDbLine
 10
0.4924225131132926
 20
47.02515318262266
 30
0.0
 11
0.7386337696699391
 21
46.77894192606601
 31
0.0
  0
LINE
  5
4F9
330
1F
100
AcDbEntity
  8
SK2
  6
CONTINUOUS
370
25
 62
7
100
AcDbLine
 10
0.8459759037065717
 20
47.09586386074131
 30
0.0
 11
1.268963855559858
 21
46.67287590888802
 31
0.0
  0
LINE
  5
4FA
330
1F
100
AcDbEntity
  8
SK2
  6
CONTINUOUS
370
25
 62
7
100
AcDbLine
 10
1.199529294299845
 20
47.16657453885997
 30
0.0
 11
1.799293941449768
 21
46.56680989171004
 31
0.0
  0
LINE
  5
4FB
330
1F
100
AcDbEntity
  8
SK2
  6
CONTINUOUS
370
25
 62
7
100
AcDbLine
 10
1.553082684893124
 20
47.23728521697862
 30
0.0
 11
2.329624027339686
 21
46.46074387453206
 31
0.0
  0
LINE
  5
4FC
330
1F
100
AcDbEntity
  8
SK2
  6
CONTINUOUS
370
25
 62
7
100
AcDbLine
 10
1.906636075486397
 20
47.30799589509728
 30
0.0
 11
2.859954113229596
 21
46.35467785735408
 31
0.0
  0
LINE
  5
4FD
330
1F
100
AcDbEntity
  8
SK2
  6
CONTINUOUS
370
25
 62
7
100
AcDbLine
 10
2.260189466079676
 20
47.37870657321594
 30
0.0
 11
3.390284199119515
 21
46.2486118401761
 31
0.0
  0
LINE
  5
4FE
330
1F
100
AcDbEntity
  8
SK2
  6
CONTINUOUS
370
25
 62
7
100
AcDbLine
 10
2.613742856672949
 20
47.44941725133459
 30
0.0
 11
3.920614285009425
 21
46.14254582299812
 31
0.0
  0
LINE
  5
4FF
330
1F
100
AcDbEntity
  8
SK2
  6
CONTINUOUS
370
25
 62
7
100
AcDbLine
 10
2.967296247266228
 20
47.52012792945325
 30
0.0
 11
4.450944370899344
 21
46.03647980582013
 31
0.0
  0
LINE
  5
500
330
1F
100
AcDbEntity
  8
SK2
  6
CONTINUOUS
370
25
 62
7
100
AcDbLine
 10
3.320849637859507
 20
47.5908386075719
 30
0.0
 11
4.981274456789262
 21
45.93041378864215
 31
0.0
  0
LINE
  5
501
330
1F
100
AcDbEntity
  8
SK2
  6
CONTINUOUS
370
25
 62
7
100
AcDbLine
 10
3.67440302845278
 20
47.66154928569055
 30
0.0
 11
5.0
 21
46.33595231414333
 31
0.0
  0
LINE
  5
502
330
1F
100
AcDbEntity
  8
SK2
  6
CONTINUOUS
370
25
 62
7
100
AcDbLine
 10
4.02795641904606
 20
47.73225996380921
 30
0.0
 11
5.0
 21
46.76021638285527
 31
0.0
  0
LINE
  5
503
330
1F
100
AcDbEntity
  8
SK2
  6
CONTINUOUS
370
25
 62
7
100
AcDbLine
 10
4.381509809639333
 20
47.80297064192786
 30
0.0
 11
5.0
 21
47.1844804515672
 31
0.0
  0
LINE
  5
504
330
1F
100
AcDbEntity
  8
SK2
  6
CONTINUOUS
370
25
 62
7
100
AcDbLine
 10
4.735063200232612
 20
47.87368132004652
 30
0.0
 11
5.0
 21
47.60874452027913
 31
0.0
  0
LINE
  5
505
330
1F
100
AcDbEntity
  8
SK2
  6
CONTINUOUS
370
25
 62
7
100
AcDbLine
 10
40.0
 20
46.92666868
 30
0.0
 11
35.0
 21
45.92666868
 31
0.0
  0
LINE
  5
506
330
1F
100
AcDbEntity
  8
SK2
  6
CONTINUOUS
370
25
 62
7
100
AcDbLine
 10
35.0
 20
45.92666868
 30
0.0
 11
35.0
 21
47.92666868
 31
0.0
  0
LINE
  5
507
330
1F
100
AcDbEntity
  8
SK2
  6
CONTINUOUS
370
25
 62
7
100
AcDbLine
 10
35.0
 20
47.92666868
 30
0.0
 11
40.0
 21
46.92666868
 31
0.0
  0
LINE
  5
508
330
1F
100
AcDbEntity
  8
SK2
  6
CONTINUOUS
370
25
 62
7
100
AcDbLine
 10
39.64272438987146
 20
46.85521355797429
 30
0.0
 11
39.76181625991431
 21
46.97430542801714
 31
0.0
  0
LINE
  5
509
330
1F
100
AcDbEntity
  8
SK2
  6
CONTINUOUS
370
25
 62
7
100
AcDbLine
 10
39.11239430398155
 20
46.74914754079631
 30
0.0
 11
39.40826286932104
 21
47.0450161061358
 31
0.0
  0
LINE
  5
50A
330
1F
100
AcDbEntity
  8
SK2
  6
CONTINUOUS
370
25
 62
7
100
AcDbLine
 10
38.58206421809162
 20
46.64308152361832
 30
0.0
 11
39.05470947872775
 21
47.11572678425445
 31
0.0
  0
LINE
  5
50B
330
1F
100
AcDbEntity
  8
SK2
  6
CONTINUOUS
370
25
 62
7
100
AcDbLine
 10
38.05173413220171
 20
46.53701550644034
 30
0.0
 11
38.70115608813447
 21
47.18643746237311
 31
0.0
  0
LINE
  5
50C
330
1F
100
AcDbEntity
  8
SK2
  6
CONTINUOUS
370
25
 62
7
100
AcDbLine
 10
37.52140404631179
 20
46.43094948926235
 30
0.0
 11
38.3476026975412
 21
47.25714814049176
 31
0.0
  0
LINE
  5
50D
330
1F
100
AcDbEntity
  8
SK2
  6
CONTINUOUS
370
25
 62
7
100
AcDbLine
 10
36.99107396042187
 20
46.32488347208437
 30
0.0
 11
37.99404930694791
 21
47.32785881861042
 31
0.0
  0
LINE
  5
50E
330
1F
100
AcDbEntity
  8
SK2
  6
CONTINUOUS
370
25
 62
7
100
AcDbLine
 10
36.46074387453195
 20
46.21881745490639
 30
0.0
 11
37.64049591635464
 21
47.39856949672907
 31
0.0
  0
LINE
  5
50F
330
1F
100
AcDbEntity
  8
SK2
  6
CONTINUOUS
370
25
 62
7
100
AcDbLine
 10
35.93041378864203
 20
46.11275143772841
 30
0.0
 11
37.28694252576136
 21
47.46928017484773
 31
0.0
  0
LINE
  5
510
330
1F
100
AcDbEntity
  8
SK2
  6
CONTINUOUS
370
25
 62
7
100
AcDbLine
 10
35.40008370275211
 20
46.00668542055042
 30
0.0
 11
36.93338913516808
 21
47.53999085296638
 31
0.0
  0
LINE
  5
511
330
1F
100
AcDbEntity
  8
SK2
  6
CONTINUOUS
370
25
 62
7
100
AcDbLine
 10
35.0
 20
46.03086578651024
 30
0.0
 11
36.5798357445748
 21
47.61070153108504
 31
0.0
  0
LINE
  5
512
330
1F
100
AcDbEntity
  8
SK2
  6
CONTINUOUS
370
25
 62
7
100
AcDbLine
 10
35.0
 20
46.45512985522217
 30
0.0
 11
36.22628235398152
 21
47.68141220920369
 31
0.0
  0
LINE
  5
513
330
1F
100
AcDbEntity
  8
SK2
  6
CONTINUOUS
370
25
 62
7
100
AcDbLine
 10
35.0
 20
46.8793939239341
 30
0.0
 11
35.87272896338825
 21
47.75212288732235
 31
0.0
  0
LINE
  5
514
330
1F
100
AcDbEntity
  8
SK2
  6
CONTINUOUS
370
25
 62
7
100
AcDbLine
 10
35.0
 20
47.30365799264604
 30
0.0
 11
35.51917557279496
 21
47.822833565441
 31
0.0
  0
LINE
  5
515
330
1F
100
AcDbEntity
  8
SK2
  6
CONTINUOUS
370
25
 62
7
100
AcDbLine
 10
35.0
 20
47.72792206135797
 30
0.0
 11
35.16562218220169
 21
47.89354424355967
 31
0.0
  0
LINE
  5
516
330
1F
100
AcDbEntity
  8
SK2
  6
CONTINUOUS
370
25
 62
7
100
AcDbLine
 10
35.0
 20
46.03443712397837
 30
0.0
 11
35.08980703664864
 21
45.94463008732973
 31
0.0
  0
LINE
  5
517
330
1F
100
AcDbEntity
  8
SK2
  6
CONTINUOUS
370
25
 62
7
100
AcDbLine
 10
35.0
 20
46.45870119269029
 30
0.0
 11
35.44336042724191
 21
46.01534076544839
 31
0.0
  0
LINE
  5
518
330
1F
100
AcDbEntity
  8
SK2
  6
CONTINUOUS
370
25
 62
7
100
AcDbLine
 10
35.0
 20
46.88296526140223
 30
0.0
 11
35.79691381783519
 21
46.08605144356704
 31
0.0
  0
LINE
  5
519
330
1F
100
AcDbEntity
  8
SK2
  6
CONTINUOUS
370
25
 62
7
100
AcDbLine
 10
35.0
 20
47.30722933011416
 30
0.0
 11
36.15046720842847
 21
46.15676212168569
 31
0.0
  0
LINE
  5
51A
330
1F
100
AcDbEntity
  8
SK2
  6
CONTINUOUS
370
25
 62
7
100
AcDbLine
 10
35.0
 20
47.7314933988261
 30
0.0
 11
36.50402059902175
 21
46.22747279980435
 31
0.0
  0
LINE
  5
51B
330
1F
100
AcDbEntity
  8
SK2
  6
CONTINUOUS
370
25
 62
7
100
AcDbLine
 10
35.28636098442253
 20
47.86939648311549
 30
0.0
 11
36.85757398961502
 21
46.298183477923
 31
0.0
  0
LINE
  5
51C
330
1F
100
AcDbEntity
  8
SK2
  6
CONTINUOUS
370
25
 62
7
100
AcDbLine
 10
35.81669107031247
 20
47.76333046593751
 30
0.0
 11
37.21112738020831
 21
46.36889415604166
 31
0.0
  0
LINE
  5
51D
330
1F
100
AcDbEntity
  8
SK2
  6
CONTINUOUS
370
25
 62
7
100
AcDbLine
 10
36.34702115620237
 20
47.65726444875952
 30
0.0
 11
37.56468077080158
 21
46.43960483416032
 31
0.0
  0
LINE
  5
51E
330
1F
100
AcDbEntity
  8
SK2
  6
CONTINUOUS
370
25
 62
7
100
AcDbLine
 10
36.87735124209231
 20
47.55119843158153
 30
0.0
 11
37.91823416139487
 21
46.51031551227898
 31
0.0
  0
LINE
  5
51F
330
1F
100
AcDbEntity
  8
SK2
  6
CONTINUOUS
370
25
 62
7
100
AcDbLine
 10
37.40768132798221
 20
47.44513241440355
 30
0.0
 11
38.27178755198814
 21
46.58102619039763
 31
0.0
  0
LINE
  5
520
330
1F
100
AcDbEntity
  8
SK2
  6
CONTINUOUS
370
25
 62
7
100
AcDbLine
 10
37.93801141387215
 20
47.33906639722557
 30
0.0
 11
38.62534094258143
 21
46.65173686851629
 31
0.0
  0
LINE
  5
521
330
1F
100
AcDbEntity
  8
SK2
  6
CONTINUOUS
370
25
 62
7
100
AcDbLine
 10
38.46834149976205
 20
47.23300038004759
 30
0.0
 11
38.9788943331747
 21
46.72244754663494
 31
0.0
  0
LINE
  5
522
330
1F
100
AcDbEntity
  8
SK2
  6
CONTINUOUS
370
25
 62
7
100
AcDbLine
 10
38.99867158565199
 20
47.1269343628696
 30
0.0
 11
39.33244772376799
 21
46.7931582247536
 31
0.0
  0
LINE
  5
523
330
1F
100
AcDbEntity
  8
SK2
  6
CONTINUOUS
370
25
 62
7
100
AcDbLine
 10
39.5290016715419
 20
47.02086834569162
 30
0.0
 11
39.68600111436126
 21
46.86386890287226
 31
0.0
  0
TEXT
  5
524
330
1F
100
AcDbEntity
  8
SK2
  6
CONTINUOUS
370
25
 62
7
100
AcDbText
 10
17.375
 20
48.42666868
 30
0.0
 40
3.5
  1
40
 72
     1
 11
20.0
 21
48.42666868
 31
0.0
100
AcDbText
  0
LINE
  5
525
330
1F
100
AcDbEntity
  8
2
  6
CONTINUOUS
370
25
 62
7
100
AcDbLine
 10
18.916
 20
-20.82352941
 30
0.0
 11
18.916
 21
-47.92666868
 31
0.0
  0
LINE
  5
526
330
1F
100
AcDbEntity
  8
2
  6
CONTINUOUS
370
25
 62
7
100
AcDbLine
 10
37.916
 20
-47.92666868
 30
0.0
 11
37.916
 21
-22.084
 31
0.0
  0
LINE
  5
527
330
1F
100
AcDbEntity
  8
2
  6
CONTINUOUS
370
25
 62
7
100
AcDbLine
 10
18.916
 20
-46.92666868
 30
0.0
 11
37.916
 21
-46.92666868
 31
0.0
  0
LINE
  5
528
330
1F
100
AcDbEntity
  8
2
  6
CONTINUOUS
370
25
 62
7
100
AcDbLine
 10
18.916
 20
-46.92666868
 30
0.0
 11
23.916
 21
-45.92666868
 31
0.0
  0
LINE
  5
529
330
1F
100
AcDbEntity
  8
2
  6
CONTINUOUS
370
25
 62
7
100
AcDbLine
 10
23.916
 20
-45.92666868
 30
0.0
 11
23.916
 21
-47.92666868
 31
0.0
  0
LINE
  5
52A
330
1F
100
AcDbEntity
  8
2
  6
CONTINUOUS
370
25
 62
7
100
AcDbLine
 10
23.916
 20
-47.92666868
 30
0.0
 11
18.916
 21
-46.92666868
 31
0.0
  0
LINE
  5
52B
330
1F
100
AcDbEntity
  8
2
  6
CONTINUOUS
370
25
 62
7
100
AcDbLine
 10
23.76794937793747
 20
-47.89705855558749
 30
0.0
 11
23.916
 21
-47.74900793352496
 31
0.0
  0
LINE
  5
52C
330
1F
100
AcDbEntity
  8
2
  6
CONTINUOUS
370
25
 62
7
100
AcDbLine
 10
23.4143959873442
 20
-47.82634787746884
 30
0.0
 11
23.916
 21
-47.32474386481304
 31
0.0
  0
LINE
  5
52D
330
1F
100
AcDbEntity
  8
2
  6
CONTINUOUS
370
25
 62
7
100
AcDbLine
 10
23.06084259675093
 20
-47.75563719935018
 30
0.0
 11
23.916
 21
-46.90047979610111
 31
0.0
  0
LINE
  5
52E
330
1F
100
AcDbEntity
  8
2
  6
CONTINUOUS
370
25
 62
7
100
AcDbLine
 10
22.70728920615765
 20
-47.68492652123153
 30
0.0
 11
23.916
 21
-46.47621572738917
 31
0.0
  0
LINE
  5
52F
330
1F
100
AcDbEntity
  8
2
  6
CONTINUOUS
370
25
 62
7
100
AcDbLine
 10
22.35373581556438
 20
-47.61421584311287
 30
0.0
 11
23.916
 21
-46.05195165867725
 31
0.0
  0
LINE
  5
530
330
1F
100
AcDbEntity
  8
2
  6
CONTINUOUS
370
25
 62
7
100
AcDbLine
 10
22.0001824249711
 20
-47.54350516499422
 30
0.0
 11
23.54227363745665
 21
-46.00141395250867
 31
0.0
  0
LINE
  5
531
330
1F
100
AcDbEntity
  8
2
  6
CONTINUOUS
370
25
 62
7
100
AcDbLine
 10
21.64662903437782
 20
-47.47279448687556
 30
0.0
 11
23.01194355156673
 21
-46.10747996968665
 31
0.0
  0
LINE
  5
532
330
1F
100
AcDbEntity
  8
2
  6
CONTINUOUS
370
25
 62
7
100
AcDbLine
 10
21.29307564378454
 20
-47.40208380875691
 30
0.0
 11
22.48161346567682
 21
-46.21354598686463
 31
0.0
  0
LINE
  5
533
330
1F
100
AcDbEntity
  8
2
  6
CONTINUOUS
370
25
 62
7
100
AcDbLine
 10
20.93952225319126
 20
-47.33137313063826
 30
0.0
 11
21.9512833797869
 21
-46.31961200404262
 31
0.0
  0
LINE
  5
534
330
1F
100
AcDbEntity
  8
2
  6
CONTINUOUS
370
25
 62
7
100
AcDbLine
 10
20.58596886259799
 20
-47.2606624525196
 30
0.0
 11
21.42095329389699
 21
-46.42567802122061
 31
0.0
  0
LINE
  5
535
330
1F
100
AcDbEntity
  8
2
  6
CONTINUOUS
370
25
 62
7
100
AcDbLine
 10
20.23241547200471
 20
-47.18995177440094
 30
0.0
 11
20.89062320800707
 21
-46.53174403839859
 31
0.0
  0
LINE
  5
536
330
1F
100
AcDbEntity
  8
2
  6
CONTINUOUS
370
25
 62
7
100
AcDbLine
 10
19.87886208141144
 20
-47.11924109628228
 30
0.0
 11
20.36029312211716
 21
-46.63781005557657
 31
0.0
  0
LINE
  5
537
330
1F
100
AcDbEntity
  8
2
  6
CONTINUOUS
370
25
 62
7
100
AcDbLine
 10
19.52530869081817
 20
-47.04853041816364
 30
0.0
 11
19.82996303622726
 21
-46.74387607275455
 31
0.0
  0
LINE
  5
538
330
1F
100
AcDbEntity
  8
2
  6
CONTINUOUS
370
25
 62
7
100
AcDbLine
 10
19.17175530022489
 20
-46.97781974004498
 30
0.0
 11
19.29963295033734
 21
-46.84994208993253
 31
0.0
  0
LINE
  5
539
330
1F
100
AcDbEntity
  8
2
  6
CONTINUOUS
370
25
 62
7
100
AcDbLine
 10
18.92226495332828
 20
-46.92541568933434
 30
0.0
 11
18.92539742999242
 21
-46.92854816599848
 31
0.0
  0
LINE
  5
53A
330
1F
100
AcDbEntity
  8
2
  6
CONTINUOUS
370
25
 62
7
100
AcDbLine
 10
19.27581834392156
 20
-46.85470501121569
 30
0.0
 11
19.45572751588234
 21
-47.03461418317647
 31
0.0
  0
LINE
  5
53B
330
1F
100
AcDbEntity
  8
2
  6
CONTINUOUS
370
25
 62
7
100
AcDbLine
 10
19.62937173451484
 20
-46.78399433309703
 30
0.0
 11
19.98605760177225
 21
-47.14068020035445
 31
0.0
  0
LINE
  5
53C
330
1F
100
AcDbEntity
  8
2
  6
CONTINUOUS
370
25
 62
7
100
AcDbLine
 10
19.98292512510812
 20
-46.71328365497838
 30
0.0
 11
20.51638768766217
 21
-47.24674621753243
 31
0.0
  0
LINE
  5
53D
330
1F
100
AcDbEntity
  8
2
  6
CONTINUOUS
370
25
 62
7
100
AcDbLine
 10
20.33647851570139
 20
-46.64257297685973
 30
0.0
 11
21.04671777355209
 21
-47.35281223471041
 31
0.0
  0
LINE
  5
53E
330
1F
100
AcDbEntity
  8
2
  6
CONTINUOUS
370
25
 62
7
100
AcDbLine
 10
20.69003190629467
 20
-46.57186229874107
 30
0.0
 11
21.577047859442
 21
-47.45887825188839
 31
0.0
  0
LINE
  5
53F
330
1F
100
AcDbEntity
  8
2
  6
CONTINUOUS
370
25
 62
7
100
AcDbLine
 10
21.04358529688794
 20
-46.50115162062241
 30
0.0
 11
22.10737794533192
 21
-47.56494426906638
 31
0.0
  0
LINE
  5
540
330
1F
100
AcDbEntity
  8
2
  6
CONTINUOUS
370
25
 62
7
100
AcDbLine
 10
21.39713868748122
 20
-46.43044094250375
 30
0.0
 11
22.63770803122183
 21
-47.67101028624437
 31
0.0
  0
LINE
  5
541
330
1F
100
AcDbEntity
  8
2
  6
CONTINUOUS
370
25
 62
7
100
AcDbLine
 10
21.7506920780745
 20
-46.3597302643851
 30
0.0
 11
23.16803811711175
 21
-47.77707630342235
 31
0.0
  0
LINE
  5
542
330
1F
100
AcDbEntity
  8
2
  6
CONTINUOUS
370
25
 62
7
100
AcDbLine
 10
22.10424546866777
 20
-46.28901958626645
 30
0.0
 11
23.69836820300166
 21
-47.88314232060033
 31
0.0
  0
LINE
  5
543
330
1F
100
AcDbEntity
  8
2
  6
CONTINUOUS
370
25
 62
7
100
AcDbLine
 10
22.45779885926105
 20
-46.21830890814779
 30
0.0
 11
23.916
 21
-47.67651004888674
 31
0.0
  0
LINE
  5
544
330
1F
100
AcDbEntity
  8
2
  6
CONTINUOUS
370
25
 62
7
100
AcDbLine
 10
22.81135224985432
 20
-46.14759823002913
 30
0.0
 11
23.916
 21
-47.25224598017481
 31
0.0
  0
LINE
  5
545
330
1F
100
AcDbEntity
  8
2
  6
CONTINUOUS
370
25
 62
7
100
AcDbLine
 10
23.1649056404476
 20
-46.07688755191048
 30
0.0
 11
23.916
 21
-46.82798191146289
 31
0.0
  0
LINE
  5
546
330
1F
100
AcDbEntity
  8
2
  6
CONTINUOUS
370
25
 62
7
100
AcDbLine
 10
23.51845903104088
 20
-46.00617687379183
 30
0.0
 11
23.916
 21
-46.40371784275095
 31
0.0
  0
LINE
  5
547
330
1F
100
AcDbEntity
  8
2
  6
CONTINUOUS
370
25
 62
7
100
AcDbLine
 10
23.87201242163415
 20
-45.93546619567317
 30
0.0
 11
23.916
 21
-45.97945377403902
 31
0.0
  0
LINE
  5
548
330
1F
100
AcDbEntity
  8
2
  6
CONTINUOUS
370
25
 62
7
100
AcDbLine
 10
37.916
 20
-46.92666868
 30
0.0
 11
32.916
 21
-47.92666868
 31
0.0
  0
LINE
  5
549
330
1F
100
AcDbEntity
  8
2
  6
CONTINUOUS
370
25
 62
7
100
AcDbLine
 10
32.916
 20
-47.92666868
 30
0.0
 11
32.916
 21
-45.92666868
 31
0.0
  0
LINE
  5
54A
330
1F
100
AcDbEntity
  8
2
  6
CONTINUOUS
370
25
 62
7
100
AcDbLine
 10
32.916
 20
-45.92666868
 30
0.0
 11
37.916
 21
-46.92666868
 31
0.0
  0
LINE
  5
54B
330
1F
100
AcDbEntity
  8
2
  6
CONTINUOUS
370
25
 62
7
100
AcDbLine
 10
37.88237106075927
 20
-46.93339446784815
 30
0.0
 11
37.89358070717284
 21
-46.92218482143457
 31
0.0
  0
LINE
  5
54C
330
1F
100
AcDbEntity
  8
2
  6
CONTINUOUS
370
25
 62
7
100
AcDbLine
 10
37.35204097486937
 20
-47.03946048502613
 30
0.0
 11
37.54002731657958
 21
-46.85147414331592
 31
0.0
  0
LINE
  5
54D
330
1F
100
AcDbEntity
  8
2
  6
CONTINUOUS
370
25
 62
7
100
AcDbLine
 10
36.82171088897944
 20
-47.14552650220411
 30
0.0
 11
37.18647392598629
 21
-46.78076346519726
 31
0.0
  0
LINE
  5
54E
330
1F
100
AcDbEntity
  8
2
  6
CONTINUOUS
370
25
 62
7
100
AcDbLine
 10
36.29138080308954
 20
-47.25159251938209
 30
0.0
 11
36.83292053539302
 21
-46.7100527870786
 31
0.0
  0
LINE
  5
54F
330
1F
100
AcDbEntity
  8
2
  6
CONTINUOUS
370
25
 62
7
100
AcDbLine
 10
35.76105071719962
 20
-47.35765853656007
 30
0.0
 11
36.47936714479975
 21
-46.63934210895994
 31
0.0
  0
LINE
  5
550
330
1F
100
AcDbEntity
  8
2
  6
CONTINUOUS
370
25
 62
7
100
AcDbLine
 10
35.23072063130969
 20
-47.46372455373806
 30
0.0
 11
36.12581375420646
 21
-46.56863143084129
 31
0.0
  0
LINE
  5
551
330
1F
100
AcDbEntity
  8
2
  6
CONTINUOUS
370
25
 62
7
100
AcDbLine
 10
34.70039054541979
 20
-47.56979057091604
 30
0.0
 11
35.77226036361319
 21
-46.49792075272264
 31
0.0
  0
LINE
  5
552
330
1F
100
AcDbEntity
  8
2
  6
CONTINUOUS
370
25
 62
7
100
AcDbLine
 10
34.17006045952987
 20
-47.67585658809402
 30
0.0
 11
35.41870697301991
 21
-46.42721007460398
 31
0.0
  0
LINE
  5
553
330
1F
100
AcDbEntity
  8
2
  6
CONTINUOUS
370
25
 62
7
100
AcDbLine
 10
33.63973037363995
 20
-47.78192260527201
 30
0.0
 11
35.06515358242663
 21
-46.35649939648533
 31
0.0
  0
LINE
  5
554
330
1F
100
AcDbEntity
  8
2
  6
CONTINUOUS
370
25
 62
7
100
AcDbLine
 10
33.10940028775003
 20
-47.88798862244999
 30
0.0
 11
34.71160019183335
 21
-46.28578871836667
 31
0.0
  0
LINE
  5
555
330
1F
100
AcDbEntity
  8
2
  6
CONTINUOUS
370
25
 62
7
100
AcDbLine
 10
32.916
 20
-47.65712484148811
 30
0.0
 11
34.35804680124008
 21
-46.21507804024802
 31
0.0
  0
LINE
  5
556
330
1F
100
AcDbEntity
  8
2
  6
CONTINUOUS
370
25
 62
7
100
AcDbLine
 10
32.916
 20
-47.23286077277616
 30
0.0
 11
34.0044934106468
 21
-46.14436736212936
 31
0.0
  0
LINE
  5
557
330
1F
100
AcDbEntity
  8
2
  6
CONTINUOUS
370
25
 62
7
100
AcDbLine
 10
32.916
 20
-46.80859670406423
 30
0.0
 11
33.65094002005352
 21
-46.07365668401071
 31
0.0
  0
LINE
  5
558
330
1F
100
AcDbEntity
  8
2
  6
CONTINUOUS
370
25
 62
7
100
AcDbLine
 10
32.916
 20
-46.38433263535229
 30
0.0
 11
33.29738662946024
 21
-46.00294600589205
 31
0.0
  0
LINE
  5
559
330
1F
100
AcDbEntity
  8
2
  6
CONTINUOUS
370
25
 62
7
100
AcDbLine
 10
32.916
 20
-45.96006856664037
 30
0.0
 11
32.94383323886697
 21
-45.93223532777339
 31
0.0
  0
LINE
  5
55A
330
1F
100
AcDbEntity
  8
2
  6
CONTINUOUS
370
25
 62
7
100
AcDbLine
 10
32.916
 20
-47.76839314092338
 30
0.0
 11
33.04789628256385
 21
-47.90028942348724
 31
0.0
  0
LINE
  5
55B
330
1F
100
AcDbEntity
  8
2
  6
CONTINUOUS
370
25
 62
7
100
AcDbLine
 10
32.916
 20
-47.34412907221145
 30
0.0
 11
33.40144967315712
 21
-47.82957874536857
 31
0.0
  0
LINE
  5
55C
330
1F
100
AcDbEntity
  8
2
  6
CONTINUOUS
370
25
 62
7
100
AcDbLine
 10
32.916
 20
-46.91986500349952
 30
0.0
 11
33.7550030637504
 21
-47.75886806724992
 31
0.0
  0
LINE
  5
55D
330
1F
100
AcDbEntity
  8
2
  6
CONTINUOUS
370
25
 62
7
100
AcDbLine
 10
32.916
 20
-46.49560093478759
 30
0.0
 11
34.10855645434367
 21
-47.68815738913125
 31
0.0
  0
LINE
  5
55E
330
1F
100
AcDbEntity
  8
2
  6
CONTINUOUS
370
25
 62
7
100
AcDbLine
 10
32.916
 20
-46.07133686607565
 30
0.0
 11
34.46210984493695
 21
-47.6174467110126
 31
0.0
  0
LINE
  5
55F
330
1F
100
AcDbEntity
  8
2
  6
CONTINUOUS
370
25
 62
7
100
AcDbLine
 10
33.26549485329534
 20
-45.99656765065907
 30
0.0
 11
34.81566323553024
 21
-47.54673603289395
 31
0.0
  0
LINE
  5
560
330
1F
100
AcDbEntity
  8
2
  6
CONTINUOUS
370
25
 62
7
100
AcDbLine
 10
33.79582493918527
 20
-46.10263366783705
 30
0.0
 11
35.16921662612351
 21
-47.47602535477529
 31
0.0
  0
LINE
  5
561
330
1F
100
AcDbEntity
  8
2
  6
CONTINUOUS
370
25
 62
7
100
AcDbLine
 10
34.32615502507519
 20
-46.20869968501505
 30
0.0
 11
35.52277001671679
 21
-47.40531467665664
 31
0.0
  0
LINE
  5
562
330
1F
100
AcDbEntity
  8
2
  6
CONTINUOUS
370
25
 62
7
100
AcDbLine
 10
34.8564851109651
 20
-46.31476570219303
 30
0.0
 11
35.87632340731007
 21
-47.33460399853799
 31
0.0
  0
LINE
  5
563
330
1F
100
AcDbEntity
  8
2
  6
CONTINUOUS
370
25
 62
7
100
AcDbLine
 10
35.38681519685503
 20
-46.42083171937101
 30
0.0
 11
36.22987679790335
 21
-47.26389332041933
 31
0.0
  0
LINE
  5
564
330
1F
100
AcDbEntity
  8
2
  6
CONTINUOUS
370
25
 62
7
100
AcDbLine
 10
35.91714528274494
 20
-46.52689773654899
 30
0.0
 11
36.58343018849662
 21
-47.19318264230067
 31
0.0
  0
LINE
  5
565
330
1F
100
AcDbEntity
  8
2
  6
CONTINUOUS
370
25
 62
7
100
AcDbLine
 10
36.44747536863485
 20
-46.63296375372697
 30
0.0
 11
36.9369835790899
 21
-47.12247196418201
 31
0.0
  0
LINE
  5
566
330
1F
100
AcDbEntity
  8
2
  6
CONTINUOUS
370
25
 62
7
100
AcDbLine
 10
36.97780545452478
 20
-46.73902977090496
 30
0.0
 11
37.29053696968319
 21
-47.05176128606337
 31
0.0
  0
LINE
  5
567
330
1F
100
AcDbEntity
  8
2
  6
CONTINUOUS
370
25
 62
7
100
AcDbLine
 10
37.5081355404147
 20
-46.84509578808294
 30
0.0
 11
37.64409036027646
 21
-46.98105060794471
 31
0.0
  0
TEXT
  5
568
330
1F
100
AcDbEntity
  8
2
  6
CONTINUOUS
370
25
 62
7
100
AcDbText
 10
26.08266666666667
 20
-45.42666868
 30
0.0
 40
3.5
  1
19
 72
     1
 11
28.416
 21
-45.42666868
 31
0.0
100
AcDbText
  0
LINE
  5
569
330
1F
100
AcDbEntity
  8
2
  6
CONTINUOUS
370
25
 62
7
100
AcDbLine
 10
0.0
 20
-8.0
 30
0.0
 11
-13.0
 21
-8.0
 31
0.0
  0
LINE
  5
56A
330
1F
100
AcDbEntity
  8
2
  6
CONTINUOUS
370
25
 62
7
100
AcDbLine
 10
-13.0
 20
8.0
 30
0.0
 11
0.0000000000000018
 21
8.0
 31
0.0
  0
LINE
  5
56B
330
1F
100
AcDbEntity
  8
2
  6
CONTINUOUS
370
25
 62
7
100
AcDbLine
 10
-12.0
 20
-15.0
 30
0.0
 11
-12.0
 21
15.0
 31
0.0
  0
LINE
  5
56C
330
1F
100
AcDbEntity
  8
2
  6
CONTINUOUS
370
25
 62
7
100
AcDbLine
 10
-12.0
 20
-8.0
 30
0.0
 11
-11.0
 21
-13.0
 31
0.0
  0
LINE
  5
56D
330
1F
100
AcDbEntity
  8
2
  6
CONTINUOUS
370
25
 62
7
100
AcDbLine
 10
-11.0
 20
-13.0
 30
0.0
 11
-13.0
 21
-13.0
 31
0.0
  0
LINE
  5
56E
330
1F
100
AcDbEntity
  8
2
  6
CONTINUOUS
370
25
 62
7
100
AcDbLine
 10
-13.0
 20
-13.0
 30
0.0
 11
-12.0
 21
-8.0
 31
0.0
  0
LINE
  5
56F
330
1F
100
AcDbEntity
  8
2
  6
CONTINUOUS
370
25
 62
7
100
AcDbLine
 10
-11.01675808900682
 20
-13.0
 30
0.0
 11
-11.00279301483447
 21
-12.98603492582765
 31
0.0
  0
LINE
  5
570
330
1F
100
AcDbEntity
  8
2
  6
CONTINUOUS
370
25
 62
7
100
AcDbLine
 10
-11.44102215771875
 20
-13.0
 30
0.0
 11
-11.07350369295312
 21
-12.63248153523438
 31
0.0
  0
LINE
  5
571
330
1F
100
AcDbEntity
  8
2
  6
CONTINUOUS
370
25
 62
7
100
AcDbLine
 10
-11.86528622643068
 20
-13.0
 30
0.0
 11
-11.14421437107178
 21
-12.2789281446411
 31
0.0
  0
LINE
  5
572
330
1F
100
AcDbEntity
  8
2
  6
CONTINUOUS
370
25
 62
7
100
AcDbLine
 10
-12.2895502951426
 20
-13.0
 30
0.0
 11
-11.21492504919043
 21
-11.92537475404783
 31
0.0
  0
LINE
  5
573
330
1F
100
AcDbEntity
  8
2
  6
CONTINUOUS
370
25
 62
7
100
AcDbLine
 10
-12.71381436385453
 20
-13.0
 30
0.0
 11
-11.28563572730909
 21
-11.57182136345456
 31
0.0
  0
LINE
  5
574
330
1F
100
AcDbEntity
  8
2
  6
CONTINUOUS
370
25
 62
7
100
AcDbLine
 10
-12.96548039185839
 20
-12.82740195929193
 30
0.0
 11
-11.35634640542774
 21
-11.21826797286128
 31
0.0
  0
LINE
  5
575
330
1F
100
AcDbEntity
  8
2
  6
CONTINUOUS
370
25
 62
7
100
AcDbLine
 10
-12.85941437468041
 20
-12.29707187340202
 30
0.0
 11
-11.4270570835464
 21
-10.86471458226801
 31
0.0
  0
LINE
  5
576
330
1F
100
AcDbEntity
  8
2
  6
CONTINUOUS
370
25
 62
7
100
AcDbLine
 10
-12.75334835750242
 20
-11.76674178751211
 30
0.0
 11
-11.49776776166505
 21
-10.51116119167474
 31
0.0
  0
LINE
  5
577
330
1F
100
AcDbEntity
  8
2
  6
CONTINUOUS
370
25
 62
7
100
AcDbLine
 10
-12.64728234032444
 20
-11.2364117016222
 30
0.0
 11
-11.56847843978371
 21
-10.15760780108146
 31
0.0
  0
LINE
  5
578
330
1F
100
AcDbEntity
  8
2
  6
CONTINUOUS
370
25
 62
7
100
AcDbLine
 10
-12.54121632314646
 20
-10.70608161573229
 30
0.0
 11
-11.63918911790236
 21
-9.804054410488192
 31
0.0
  0
LINE
  5
579
330
1F
100
AcDbEntity
  8
2
  6
CONTINUOUS
370
25
 62
7
100
AcDbLine
 10
-12.43515030596848
 20
-10.17575152984238
 30
0.0
 11
-11.70989979602101
 21
-9.450501019894917
 31
0.0
  0
LINE
  5
57A
330
1F
100
AcDbEntity
  8
2
  6
CONTINUOUS
370
25
 62
7
100
AcDbLine
 10
-12.32908428879049
 20
-9.645421443952468
 30
0.0
 11
-11.78061047413967
 21
-9.096947629301646
 31
0.0
  0
LINE
  5
57B
330
1F
100
AcDbEntity
  8
2
  6
CONTINUOUS
370
25
 62
7
100
AcDbLine
 10
-12.22301827161251
 20
-9.11509135806256
 30
0.0
 11
-11.85132115225832
 21
-8.74339423870837
 31
0.0
  0
LINE
  5
57C
330
1F
100
AcDbEntity
  8
2
  6
CONTINUOUS
370
25
 62
7
100
AcDbLine
 10
-12.11695225443453
 20
-8.58476127217265
 30
0.0
 11
-11.92203183037698
 21
-8.3898408481151
 31
0.0
  0
LINE
  5
57D
330
1F
100
AcDbEntity
  8
2
  6
CONTINUOUS
370
25
 62
7
100
AcDbLine
 10
-12.01088623725655
 20
-8.054431186282741
 30
0.0
 11
-11.99274250849563
 21
-8.036287457521825
 31
0.0
  0
LINE
  5
57E
330
1F
100
AcDbEntity
  8
2
  6
CONTINUOUS
370
25
 62
7
100
AcDbLine
 10
-12.96669833240221
 20
-12.83349166201105
 30
0.0
 11
-12.80018999441326
 21
-13.0
 31
0.0
  0
LINE
  5
57F
330
1F
100
AcDbEntity
  8
2
  6
CONTINUOUS
370
25
 62
7
100
AcDbLine
 10
-12.89598765428356
 20
-12.47993827141777
 30
0.0
 11
-12.37592592570132
 21
-13.0
 31
0.0
  0
LINE
  5
580
330
1F
100
AcDbEntity
  8
2
  6
CONTINUOUS
370
25
 62
7
100
AcDbLine
 10
-12.8252769761649
 20
-12.1263848808245
 30
0.0
 11
-11.9516618569894
 21
-13.0
 31
0.0
  0
LINE
  5
581
330
1F
100
AcDbEntity
  8
2
  6
CONTINUOUS
370
25
 62
7
100
AcDbLine
 10
-12.75456629804624
 20
-11.77283149023122
 30
0.0
 11
-11.52739778827747
 21
-13.0
 31
0.0
  0
LINE
  5
582
330
1F
100
AcDbEntity
  8
2
  6
CONTINUOUS
370
25
 62
7
100
AcDbLine
 10
-12.68385561992759
 20
-11.41927809963795
 30
0.0
 11
-11.10313371956554
 21
-13.0
 31
0.0
  0
LINE
  5
583
330
1F
100
AcDbEntity
  8
2
  6
CONTINUOUS
370
25
 62
7
100
AcDbLine
 10
-12.61314494180893
 20
-11.06572470904468
 30
0.0
 11
-11.0802825872866
 21
-12.59858706356702
 31
0.0
  0
LINE
  5
584
330
1F
100
AcDbEntity
  8
2
  6
CONTINUOUS
370
25
 62
7
100
AcDbLine
 10
-12.54243426369028
 20
-10.7121713184514
 30
0.0
 11
-11.18634860446458
 21
-12.06825697767711
 31
0.0
  0
LINE
  5
585
330
1F
100
AcDbEntity
  8
2
  6
CONTINUOUS
370
25
 62
7
100
AcDbLine
 10
-12.47172358557163
 20
-10.35861792785813
 30
0.0
 11
-11.29241462164256
 21
-11.5379268917872
 31
0.0
  0
LINE
  5
586
330
1F
100
AcDbEntity
  8
2
  6
CONTINUOUS
370
25
 62
7
100
AcDbLine
 10
-12.40101290745297
 20
-10.00506453726486
 30
0.0
 11
-11.39848063882054
 21
-11.00759680589729
 31
0.0
  0
LINE
  5
587
330
1F
100
AcDbEntity
  8
2
  6
CONTINUOUS
370
25
 62
7
100
AcDbLine
 10
-12.33030222933432
 20
-9.651511146671583
 30
0.0
 11
-11.50454665599852
 21
-10.47726672000738
 31
0.0
  0
LINE
  5
588
330
1F
100
AcDbEntity
  8
2
  6
CONTINUOUS
370
25
 62
7
100
AcDbLine
 10
-12.25959155121566
 20
-9.29795775607831
 30
0.0
 11
-11.61061267317651
 21
-9.946936634117467
 31
0.0
  0
LINE
  5
589
330
1F
100
AcDbEntity
  8
2
  6
CONTINUOUS
370
25
 62
7
100
AcDbLine
 10
-12.18888087309701
 20
-8.944404365485038
 30
0.0
 11
-11.71667869035449
 21
-9.416606548227556
 31
0.0
  0
LINE
  5
58A
330
1F
100
AcDbEntity
  8
2
  6
CONTINUOUS
370
25
 62
7
100
AcDbLine
 10
-12.11817019497835
 20
-8.590850974891763
 30
0.0
 11
-11.82274470753247
 21
-8.886276462337648
 31
0.0
  0
LINE
  5
58B
330
1F
100
AcDbEntity
  8
2
  6
CONTINUOUS
370
25
 62
7
100
AcDbLine
 10
-12.0474595168597
 20
-8.237297584298494
 30
0.0
 11
-11.92881072471045
 21
-8.35594637644774
 31
0.0
  0
LINE
  5
58C
330
1F
100
AcDbEntity
  8
2
  6
CONTINUOUS
370
25
 62
7
100
AcDbLine
 10
-12.0
 20
8.0
 30
0.0
 11
-13.0
 21
13.0
 31
0.0
  0
LINE
  5
58D
330
1F
100
AcDbEntity
  8
2
  6
CONTINUOUS
370
25
 62
7
100
AcDbLine
 10
-13.0
 20
13.0
 30
0.0
 11
-11.0
 21
13.0
 31
0.0
  0
LINE
  5
58E
330
1F
100
AcDbEntity
  8
2
  6
CONTINUOUS
370
25
 62
7
100
AcDbLine
 10
-11.0
 20
13.0
 30
0.0
 11
-12.0
 21
8.0
 31
0.0
  0
LINE
  5
58F
330
1F
100
AcDbEntity
  8
2
  6
CONTINUOUS
370
25
 62
7
100
AcDbLine
 10
-12.06077921636209
 20
8.303896081810468
 30
0.0
 11
-11.90883117545686
 21
8.4558441227157
 31
0.0
  0
LINE
  5
590
330
1F
100
AcDbEntity
  8
2
  6
CONTINUOUS
370
25
 62
7
100
AcDbLine
 10
-12.13148989448075
 20
8.657449472403743
 30
0.0
 11
-11.80276515827888
 21
8.98617420860561
 31
0.0
  0
LINE
  5
591
330
1F
100
AcDbEntity
  8
2
  6
CONTINUOUS
370
25
 62
7
100
AcDbLine
 10
-12.2022005725994
 20
9.011002862997016
 30
0.0
 11
-11.6966991411009
 21
9.516504294495519
 31
0.0
  0
LINE
  5
592
330
1F
100
AcDbEntity
  8
2
  6
CONTINUOUS
370
25
 62
7
100
AcDbLine
 10
-12.27291125071805
 20
9.364556253590289
 30
0.0
 11
-11.59063312392292
 21
10.04683438038543
 31
0.0
  0
LINE
  5
593
330
1F
100
AcDbEntity
  8
2
  6
CONTINUOUS
370
25
 62
7
100
AcDbLine
 10
-12.34362192883671
 20
9.71810964418356
 30
0.0
 11
-11.48456710674493
 21
10.57716446627534
 31
0.0
  0
LINE
  5
594
330
1F
100
AcDbEntity
  8
2
  6
CONTINUOUS
370
25
 62
7
100
AcDbLine
 10
-12.41433260695536
 20
10.07166303477683
 30
0.0
 11
-11.37850108956695
 21
11.10749455216525
 31
0.0
  0
LINE
  5
595
330
1F
100
AcDbEntity
  8
2
  6
CONTINUOUS
370
25
 62
7
100
AcDbLine
 10
-12.48504328507402
 20
10.42521642537011
 30
0.0
 11
-11.27243507238897
 21
11.63782463805516
 31
0.0
  0
LINE
  5
596
330
1F
100
AcDbEntity
  8
2
  6
CONTINUOUS
370
25
 62
7
100
AcDbLine
 10
-12.55575396319267
 20
10.77876981596338
 30
0.0
 11
-11.16636905521099
 21
12.16815472394507
 31
0.0
  0
LINE
  5
597
330
1F
100
AcDbEntity
  8
2
  6
CONTINUOUS
370
25
 62
7
100
AcDbLine
 10
-12.62646464131133
 20
11.13232320655665
 30
0.0
 11
-11.06030303803301
 21
12.69848480983498
 31
0.0
  0
LINE
  5
598
330
1F
100
AcDbEntity
  8
2
  6
CONTINUOUS
370
25
 62
7
100
AcDbLine
 10
-12.69717531942998
 20
11.48587659714993
 30
0.0
 11
-11.18305191657991
 21
13.0
 31
0.0
  0
LINE
  5
599
330
1F
100
AcDbEntity
  8
2
  6
CONTINUOUS
370
25
 62
7
100
AcDbLine
 10
-12.76788599754864
 20
11.8394299877432
 30
0.0
 11
-11.60731598529184
 21
13.0
 31
0.0
  0
LINE
  5
59A
330
1F
100
AcDbEntity
  8
2
  6
CONTINUOUS
370
25
 62
7
100
AcDbLine
 10
-12.83859667566729
 20
12.19298337833647
 30
0.0
 11
-12.03158005400376
 21
13.0
 31
0.0
  0
LINE
  5
59B
330
1F
100
AcDbEntity
  8
2
  6
CONTINUOUS
370
25
 62
7
100
AcDbLine
 10
-12.90930735378595
 20
12.54653676892974
 30
0.0
 11
-12.45584412271569
 21
13.0
 31
0.0
  0
LINE
  5
59C
330
1F
100
AcDbEntity
  8
2
  6
CONTINUOUS
370
25
 62
7
100
AcDbLine
 10
-12.9800180319046
 20
12.90009015952302
 30
0.0
 11
-12.88010819142762
 21
13.0
 31
0.0
  0
LINE
  5
59D
330
1F
100
AcDbEntity
  8
2
  6
CONTINUOUS
370
25
 62
7
100
AcDbLine
 10
-12.06484969403153
 20
8.324248470157647
 30
0.0
 11
-11.95676687064565
 21
8.216165646771769
 31
0.0
  0
LINE
  5
59E
330
1F
100
AcDbEntity
  8
2
  6
CONTINUOUS
370
25
 62
7
100
AcDbLine
 10
-12.17091571120951
 20
8.854578556047558
 30
0.0
 11
-11.88605619252699
 21
8.56971903736504
 31
0.0
  0
LINE
  5
59F
330
1F
100
AcDbEntity
  8
2
  6
CONTINUOUS
370
25
 62
7
100
AcDbLine
 10
-12.27698172838749
 20
9.384908641937466
 30
0.0
 11
-11.81534551440834
 21
8.923272427958311
 31
0.0
  0
LINE
  5
5A0
330
1F
100
AcDbEntity
  8
2
  6
CONTINUOUS
370
25
 62
7
100
AcDbLine
 10
-12.38304774556547
 20
9.915238727827376
 30
0.0
 11
-11.74463483628968
 21
9.276825818551586
 31
0.0
  0
LINE
  5
5A1
330
1F
100
AcDbEntity
  8
2
  6
CONTINUOUS
370
25
 62
7
100
AcDbLine
 10
-12.48911376274346
 20
10.44556881371729
 30
0.0
 11
-11.67392415817103
 21
9.63037920914486
 31
0.0
  0
LINE
  5
5A2
330
1F
100
AcDbEntity
  8
2
  6
CONTINUOUS
370
25
 62
7
100
AcDbLine
 10
-12.59517977992144
 20
10.9758988996072
 30
0.0
 11
-11.60321348005237
 21
9.983932599738132
 31
0.0
  0
LINE
  5
5A3
330
1F
100
AcDbEntity
  8
2
  6
CONTINUOUS
370
25
 62
7
100
AcDbLine
 10
-12.70124579709942
 20
11.5062289854971
 30
0.0
 11
-11.53250280193372
 21
10.33748599033141
 31
0.0
  0
LINE
  5
5A4
330
1F
100
AcDbEntity
  8
2
  6
CONTINUOUS
370
25
 62
7
100
AcDbLine
 10
-12.8073118142774
 20
12.03655907138701
 30
0.0
 11
-11.46179212381506
 21
10.69103938092468
 31
0.0
  0
LINE
  5
5A5
330
1F
100
AcDbEntity
  8
2
  6
CONTINUOUS
370
25
 62
7
100
AcDbLine
 10
-12.91337783145538
 20
12.56688915727692
 30
0.0
 11
-11.39108144569641
 21
11.04459277151796
 31
0.0
  0
LINE
  5
5A6
330
1F
100
AcDbEntity
  8
2
  6
CONTINUOUS
370
25
 62
7
100
AcDbLine
 10
-12.92222460546653
 20
13.0
 30
0.0
 11
-11.32037076757775
 21
11.39814616211123
 31
0.0
  0
LINE
  5
5A7
330
1F
100
AcDbEntity
  8
2
  6
CONTINUOUS
370
25
 62
7
100
AcDbLine
 10
-12.4979605367546
 20
13.0
 30
0.0
 11
-11.2496600894591
 21
11.7516995527045
 31
0.0
  0
LINE
  5
5A8
330
1F
100
AcDbEntity
  8
2
  6
CONTINUOUS
370
25
 62
7
100
AcDbLine
 10
-12.07369646804267
 20
13.0
 30
0.0
 11
-11.17894941134045
 21
12.10525294329777
 31
0.0
  0
LINE
  5
5A9
330
1F
100
AcDbEntity
  8
2
  6
CONTINUOUS
370
25
 62
7
100
AcDbLine
 10
-11.64943239933075
 20
13.0
 30
0.0
 11
-11.10823873322179
 21
12.45880633389105
 31
0.0
  0
LINE
  5
5AA
330
1F
100
AcDbEntity
  8
2
  6
CONTINUOUS
370
25
 62
7
100
AcDbLine
 10
-11.22516833061882
 20
13.0
 30
0.0
 11
-11.03752805510314
 21
12.81235972448432
 31
0.0
  0
TEXT
  5
5AB
330
1F
100
AcDbEntity
  8
2
  6
CONTINUOUS
370
25
 62
7
100
AcDbText
 10
-13.5
 20
-0.0583333333333336
 30
0.0
 40
3.5
  1
16
 50
90.0
 72
     1
 11
-13.5
 21
2.275
 31
0.0
100
AcDbText
  0
CIRCLE
  5
5AC
330
1F
100
AcDbEntity
  8
2
  6
CONTINUOUS
370
25
 62
7
100
AcDbCircle
 10
-15.25
 20
-2.625
 30
0.0
 40
1.4
  0
LINE
  5
5AD
330
1F
100
AcDbEntity
  8
2
  6
CONTINUOUS
370
25
 62
7
100
AcDbLine
 10
-13.85
 20
-4.024999999999999
 30
0.0
 11
-16.65
 21
-1.224999999999999
 31
0.0
  0
LINE
  5
5AE
330
1F
100
AcDbEntity
  8
4
  6
LONGDASH_DASH
370
25
 62
2
100
AcDbLine
 10
0.0
 20
0.0
 30
0.0
 11
40.0
 21
0.0
 31
0.0
  0
LINE
  5
5AF
330
1F
100
AcDbEntity
  8
SK1
  6
CONTINUOUS
370
50
 62
4
100
AcDbLine
 10
0.0
 20
0.0
 30
0.0
 11
1.75
 21
0.0
 31
0.0
  0
LINE
  5
5B0
330
1F
100
AcDbEntity
  8
SK1
  6
CONTINUOUS
370
50
 62
4
100
AcDbLine
 10
0.0
 20
0.0
 30
0.0
 11
0.0
 21
1.75
 31
0.0
  0
ARC
  5
5B1
330
1F
100
AcDbEntity
  8
SK1
  6
CONTINUOUS
370
50
 62
4
100
AcDbCircle
 10
0.0
 20
0.0
 30
0.0
 40
1.75
100
AcDbArc
 50
0.0
 51
90.0
  0
LINE
  5
5B2
330
1F
100
AcDbEntity
  8
SK1
  6
CONTINUOUS
370
50
 62
4
100
AcDbLine
 10
0.0
 20
0.0
 30
0.0
 11
-1.75
 21
0.0
 31
0.0
  0
ARC
  5
5B3
330
1F
100
AcDbEntity
  8
SK1
  6
CONTINUOUS
370
50
 62
4
100
AcDbCircle
 10
0.0
 20
0.0
 30
0.0
 40
1.75
100
AcDbArc
 50
180.0
 51
270.0
  0
LINE
  5
5B4
330
1F
100
AcDbEntity
  8
SK1
  6
CONTINUOUS
370
50
 62
4
100
AcDbLine
 10
0.0
 20
-1.75
 30
0.0
 11
0.0
 21
0.0
 31
0.0
  0
ARC
  5
5B5
330
1F
100
AcDbEntity
  8
SK1
  6
CONTINUOUS
370
50
 62
4
100
AcDbCircle
 10
0.0
 20
0.0
 30
0.0
 40
1.75
100
AcDbArc
 50
270.0
 51
0.0
  0
ARC
  5
5B6
330
1F
100
AcDbEntity
  8
SK1
  6
CONTINUOUS
370
50
 62
4
100
AcDbCircle
 10
0.0
 20
0.0
 30
0.0
 40
1.75
100
AcDbArc
 50
90.0
 51
180.0
  0
LINE
  5
5B7
330
1F
100
AcDbEntity
  8
SK1
  6
CONTINUOUS
370
50
 62
4
100
AcDbLine
 10
-0.2228272525842667
 20
-1.73564731720198
 30
0.0
 11
0.0
 21
-1.512820064617713
 31
0.0
  0
LINE
  5
5B8
330
1F
100
AcDbEntity
  8
SK1
  6
CONTINUOUS
370
50
 62
4
100
AcDbLine
 10
1.512820064617712
 20
0.0
 30
0.0
 11
1.73564731720198
 21
0.2228272525842674
 31
0.0
  0
LINE
  5
5B9
330
1F
100
AcDbEntity
  8
SK1
  6
CONTINUOUS
370
50
 62
4
100
AcDbLine
 10
-0.4306961931812687
 20
-1.69602888438369
 30
0.0
 11
0.0
 21
-1.265332691202421
 31
0.0
  0
LINE
  5
5BA
330
1F
100
AcDbEntity
  8
SK1
  6
CONTINUOUS
370
50
 62
4
100
AcDbLine
 10
1.26533269120242
 20
0.0
 30
0.0
 11
1.696028884383689
 21
0.4306961931812696
 31
0.0
  0
LINE
  5
5BB
330
1F
100
AcDbEntity
  8
SK1
  6
CONTINUOUS
370
50
 62
4
100
AcDbLine
 10
-0.6185165956423545
 20
-1.636361913429485
 30
0.0
 11
0.0
 21
-1.01784531778713
 31
0.0
  0
LINE
  5
5BC
330
1F
100
AcDbEntity
  8
SK1
  6
CONTINUOUS
370
50
 62
4
100
AcDbLine
 10
1.017845317787129
 20
0.0
 30
0.0
 11
1.636361913429484
 21
0.6185165956423557
 31
0.0
  0
LINE
  5
5BD
330
1F
100
AcDbEntity
  8
SK1
  6
CONTINUOUS
370
50
 62
4
100
AcDbLine
 10
-0.7901448905372002
 20
-1.560502834909039
 30
0.0
 11
0.0
 21
-0.7703579443718382
 31
0.0
  0
LINE
  5
5BE
330
1F
100
AcDbEntity
  8
SK1
  6
CONTINUOUS
370
50
 62
4
100
AcDbLine
 10
0.7703579443718377
 20
0.0
 30
0.0
 11
1.560502834909038
 21
0.7901448905372013
 31
0.0
  0
LINE
  5
5BF
330
1F
100
AcDbEntity
  8
SK1
  6
CONTINUOUS
370
50
 62
4
100
AcDbLine
 10
-0.9478221678055315
 20
-1.470692738762079
 30
0.0
 11
0.0
 21
-0.5228705709565462
 31
0.0
  0
LINE
  5
5C0
330
1F
100
AcDbEntity
  8
SK1
  6
CONTINUOUS
370
50
 62
4
100
AcDbLine
 10
0.5228705709565458
 20
0.0
 30
0.0
 11
1.470692738762078
 21
0.947822167805533
 31
0.0
  0
LINE
  5
5C1
330
1F
100
AcDbEntity
  8
SK1
  6
CONTINUOUS
370
50
 62
4
100
AcDbLine
 10
-1.091570432884521
 20
-1.366953630425777
 30
0.0
 11
0.0
 21
-0.2753831975412551
 31
0.0
  0
LINE
  5
5C2
330
1F
100
AcDbEntity
  8
SK1
  6
CONTINUOUS
370
50
 62
4
100
AcDbLine
 10
0.2753831975412548
 20
0.0
 30
0.0
 11
1.366953630425776
 21
1.091570432884522
 31
0.0
  0
LINE
  5
5C3
330
1F
100
AcDbEntity
  8
SK1
  6
CONTINUOUS
370
50
 62
4
100
AcDbLine
 10
-1.222878354618355
 20
-1.25077417874432
 30
0.0
 11
0.0
 21
-0.0278958241259639
 31
0.0
  0
LINE
  5
5C4
330
1F
100
AcDbEntity
  8
SK1
  6
CONTINUOUS
370
50
 62
4
100
AcDbLine
 10
0.0278958241259639
 20
0.0
 30
0.0
 11
1.250774178744319
 21
1.222878354618356
 31
0.0
  0
LINE
  5
5C5
330
1F
100
AcDbEntity
  8
SK1
  6
CONTINUOUS
370
50
 62
4
100
AcDbLine
 10
-1.342159696286539
 20
-1.122568146997212
 30
0.0
 11
-0.2195915492893275
 21
0.0
 31
0.0
  0
LINE
  5
5C6
330
1F
100
AcDbEntity
  8
SK1
  6
CONTINUOUS
370
50
 62
4
100
AcDbLine
 10
0.0
 20
0.2195915492893277
 30
0.0
 11
1.122568146997211
 21
1.34215969628654
 31
0.0
  0
LINE
  5
5C7
330
1F
100
AcDbEntity
  8
SK1
  6
CONTINUOUS
370
50
 62
4
100
AcDbLine
 10
-1.448118327687437
 20
-0.9810394049828186
 30
0.0
 11
-0.4670789227046189
 21
0.0
 31
0.0
  0
LINE
  5
5C8
330
1F
100
AcDbEntity
  8
SK1
  6
CONTINUOUS
370
50
 62
4
100
AcDbLine
 10
0.0
 20
0.4670789227046193
 30
0.0
 11
0.9810394049828175
 21
1.448118327687438
 31
0.0
  0
LINE
  5
5C9
330
1F
100
AcDbEntity
  8
SK1
  6
CONTINUOUS
370
50
 62
4
100
AcDbLine
 10
-1.541670913484249
 20
-0.8271046173643402
 30
0.0
 11
-0.7145662961199095
 21
0.0
 31
0.0
  0
LINE
  5
5CA
330
1F
100
AcDbEntity
  8
SK1
  6
CONTINUOUS
370
50
 62
4
100
AcDbLine
 10
0.0
 20
0.71456629611991
 30
0.0
 11
0.8271046173643392
 21
1.54167091348425
 31
0.0
  0
LINE
  5
5CB
330
1F
100
AcDbEntity
  8
SK1
  6
CONTINUOUS
370
50
 62
4
100
AcDbLine
 10
-1.620815261757953
 20
-0.6587615922227528
 30
0.0
 11
-0.9620536695352009
 21
0.0
 31
0.0
  0
LINE
  5
5CC
330
1F
100
AcDbEntity
  8
SK1
  6
CONTINUOUS
370
50
 62
4
100
AcDbLine
 10
0.0
 20
0.9620536695352015
 30
0.0
 11
0.6587615922227518
 21
1.620815261757954
 31
0.0
  0
LINE
  5
5CD
330
1F
100
AcDbEntity
  8
SK1
  6
CONTINUOUS
370
50
 62
4
100
AcDbLine
 10
-1.683703122930369
 20
-0.474162079979876
 30
0.0
 11
-1.209541042950493
 21
0.0
 31
0.0
  0
LINE
  5
5CE
330
1F
100
AcDbEntity
  8
SK1
  6
CONTINUOUS
370
50
 62
4
100
AcDbLine
 10
0.0
 20
1.209541042950494
 30
0.0
 11
0.474162079979875
 21
1.683703122930369
 31
0.0
  0
LINE
  5
5CF
330
1F
100
AcDbEntity
  8
SK1
  6
CONTINUOUS
370
50
 62
4
100
AcDbLine
 10
-1.728018995657286
 20
-0.2709905792915031
 30
0.0
 11
-1.457028416365783
 21
0.0
 31
0.0
  0
LINE
  5
5D0
330
1F
100
AcDbEntity
  8
SK1
  6
CONTINUOUS
370
50
 62
4
100
AcDbLine
 10
0.0
 20
1.457028416365784
 30
0.0
 11
0.2709905792915025
 21
1.728018995657286
 31
0.0
  0
LINE
  5
5D1
330
1F
100
AcDbEntity
  8
SK1
  6
CONTINUOUS
370
50
 62
4
100
AcDbLine
 10
-1.748614153102194
 20
-0.0440983633211194
 30
0.0
 11
-1.704515789781075
 21
0.0
 31
0.0
  0
LINE
  5
5D2
330
1F
100
AcDbEntity
  8
SK1
  6
CONTINUOUS
370
50
 62
4
100
AcDbLine
 10
0.0
 20
1.704515789781075
 30
0.0
 11
0.0440983633211188
 21
1.748614153102194
 31
0.0
  0
LINE
  5
5D3
330
1F
100
AcDbEntity
  8
SK1
  6
CONTINUOUS
370
50
 62
4
100
AcDbLine
 10
-1.636134823963185
 20
-0.6191473609004006
 30
0.0
 11
-0.6191473609003987
 21
-1.636134823963186
 31
0.0
  0
LINE
  5
5D4
330
1F
100
AcDbEntity
  8
SK1
  6
CONTINUOUS
370
50
 62
4
100
AcDbLine
 10
-1.726365693564548
 20
-0.2814291178837463
 30
0.0
 11
-0.2814291178837454
 21
-1.726365693564548
 31
0.0
  0
LINE
  5
5D5
330
1F
100
AcDbEntity
  8
SK1
  6
CONTINUOUS
370
50
 62
4
100
AcDbLine
 10
-1.749665565688502
 20
-0.0106418723445003
 30
0.0
 11
-0.0106418723444989
 21
-1.749665565688503
 31
0.0
  0
LINE
  5
5D6
330
1F
100
AcDbEntity
  8
SK1
  6
CONTINUOUS
370
50
 62
4
100
AcDbLine
 10
-1.512820064617711
 20
0.0
 30
0.0
 11
0.0
 21
-1.51282006461771
 31
0.0
  0
LINE
  5
5D7
330
1F
100
AcDbEntity
  8
SK1
  6
CONTINUOUS
370
50
 62
4
100
AcDbLine
 10
-1.265332691202419
 20
0.0
 30
0.0
 11
0.0
 21
-1.265332691202418
 31
0.0
  0
LINE
  5
5D8
330
1F
100
AcDbEntity
  8
SK1
  6
CONTINUOUS
370
50
 62
4
100
AcDbLine
 10
-1.017845317787128
 20
0.0
 30
0.0
 11
0.0
 21
-1.017845317787128
 31
0.0
  0
LINE
  5
5D9
330
1F
100
AcDbEntity
  8
SK1
  6
CONTINUOUS
370
50
 62
4
100
AcDbLine
 10
-0.7703579443718372
 20
0.0
 30
0.0
 11
0.0
 21
-0.7703579443718369
 31
0.0
  0
LINE
  5
5DA
330
1F
100
AcDbEntity
  8
SK1
  6
CONTINUOUS
370
50
 62
4
100
AcDbLine
 10
-0.5228705709565455
 20
0.0
 30
0.0
 11
0.0
 21
-0.5228705709565453
 31
0.0
  0
LINE
  5
5DB
330
1F
100
AcDbEntity
  8
SK1
  6
CONTINUOUS
370
50
 62
4
100
AcDbLine
 10
-0.2753831975412538
 20
0.0
 30
0.0
 11
0.0
 21
-0.2753831975412537
 31
0.0
  0
LINE
  5
5DC
330
1F
100
AcDbEntity
  8
SK1
  6
CONTINUOUS
370
50
 62
4
100
AcDbLine
 10
-0.027895824125963
 20
0.0
 30
0.0
 11
0.0
 21
-0.027895824125963
 31
0.0
  0
LINE
  5
5DD
330
1F
100
AcDbEntity
  8
SK1
  6
CONTINUOUS
370
50
 62
4
100
AcDbLine
 10
0.0
 20
0.219591549289329
 30
0.0
 11
0.2195915492893291
 21
0.0
 31
0.0
  0
LINE
  5
5DE
330
1F
100
AcDbEntity
  8
SK1
  6
CONTINUOUS
370
50
 62
4
100
AcDbLine
 10
0.0
 20
0.4670789227046202
 30
0.0
 11
0.4670789227046204
 21
0.0
 31
0.0
  0
LINE
  5
5DF
330
1F
100
AcDbEntity
  8
SK1
  6
CONTINUOUS
370
50
 62
4
100
AcDbLine
 10
0.0
 20
0.7145662961199113
 30
0.0
 11
0.7145662961199116
 21
0.0
 31
0.0
  0
LINE
  5
5E0
330
1F
100
AcDbEntity
  8
SK1
  6
CONTINUOUS
370
50
 62
4
100
AcDbLine
 10
0.0
 20
0.9620536695352029
 30
0.0
 11
0.9620536695352035
 21
0.0
 31
0.0
  0
LINE
  5
5E1
330
1F
100
AcDbEntity
  8
SK1
  6
CONTINUOUS
370
50
 62
4
100
AcDbLine
 10
0.0
 20
1.209541042950494
 30
0.0
 11
1.209541042950495
 21
0.0
 31
0.0
  0
LINE
  5
5E2
330
1F
100
AcDbEntity
  8
SK1
  6
CONTINUOUS
370
50
 62
4
100
AcDbLine
 10
0.0
 20
1.457028416365785
 30
0.0
 11
1.457028416365786
 21
0.0
 31
0.0
  0
LINE
  5
5E3
330
1F
100
AcDbEntity
  8
SK1
  6
CONTINUOUS
370
50
 62
4
100
AcDbLine
 10
0.0
 20
1.704515789781076
 30
0.0
 11
1.704515789781077
 21
0.0
 31
0.0
  0
LINE
  5
5E4
330
1F
100
AcDbEntity
  8
SK1
  6
CONTINUOUS
370
50
 62
4
100
AcDbLine
 10
0.2154338419356704
 20
1.736569321260697
 30
0.0
 11
1.736569321260697
 21
0.2154338419356714
 31
0.0
  0
LINE
  5
5E5
330
1F
100
AcDbEntity
  8
SK1
  6
CONTINUOUS
370
50
 62
4
100
AcDbLine
 10
0.5328328472899302
 20
1.666657689321729
 30
0.0
 11
1.666657689321728
 21
0.5328328472899322
 31
0.0
  0
LINE
  5
5E6
330
1F
100
AcDbEntity
  8
SK1
  6
CONTINUOUS
370
50
 62
4
100
AcDbLine
 10
1.040098749056744
 20
1.406879160970207
 30
0.0
 11
1.406879160970204
 21
1.040098749056747
 31
0.0
  0
LINE
  5
5E7
330
1F
100
AcDbEntity
  8
2
  6
CONTINUOUS
370
25
 62
7
100
AcDbLine
 10
40.0
 20
20.0
 30
0.0
 11
26.5649711574556
 21
33.4350288425444
 31
0.0
  0
LINE
  5
5E8
330
1F
100
AcDbEntity
  8
2
  6
CONTINUOUS
370
25
 62
7
100
AcDbLine
 10
40.0
 20
20.0
 30
0.0
 11
40.0
 21
39.0
 31
0.0
  0
ARC
  5
5E9
330
1F
100
AcDbEntity
  8
2
  6
CONTINUOUS
370
25
 62
7
100
AcDbCircle
 10
39.99999999999997
 20
20.00000000000009
 30
0.0
 40
17.99999999999993
100
AcDbArc
 50
67.57545716470042
 51
157.4245428352996
  0
LINE
  5
5EA
330
1F
100
AcDbEntity
  8
2
  6
CONTINUOUS
370
25
 62
7
100
AcDbLine
 10
27.27207793864214
 20
32.72792206135786
 30
0.0
 11
25.06031966386304
 21
28.13356407204682
 31
0.0
  0
LINE
  5
5EB
330
1F
100
AcDbEntity
  8
2
  6
CONTINUOUS
370
25
 62
7
100
AcDbLine
 10
25.06031966386304
 20
28.13356407204682
 30
0.0
 11
23.4633941506495
 21
29.33765248460118
 31
0.0
  0
LINE
  5
5EC
330
1F
100
AcDbEntity
  8
2
  6
CONTINUOUS
370
25
 62
7
100
AcDbLine
 10
23.4633941506495
 20
29.33765248460118
 30
0.0
 11
27.27207793864214
 21
32.72792206135786
 31
0.0
  0
LINE
  5
5ED
330
1F
100
AcDbEntity
  8
2
  6
CONTINUOUS
370
25
 62
7
100
AcDbLine
 10
24.88090796539412
 20
28.2688412314482
 30
0.0
 11
25.3524441366103
 21
28.74037740266439
 31
0.0
  0
LINE
  5
5EE
330
1F
100
AcDbEntity
  8
2
  6
CONTINUOUS
370
25
 62
7
100
AcDbLine
 10
24.63902479964723
 20
28.45122213441324
 30
0.0
 11
25.74628686182418
 21
29.5584841965902
 31
0.0
  0
LINE
  5
5EF
330
1F
100
AcDbEntity
  8
2
  6
CONTINUOUS
370
25
 62
7
100
AcDbLine
 10
24.39714163390034
 20
28.63360303737828
 30
0.0
 11
26.14012958703806
 21
30.37659099051601
 31
0.0
  0
LINE
  5
5F0
330
1F
100
AcDbEntity
  8
2
  6
CONTINUOUS
370
25
 62
7
100
AcDbLine
 10
24.15525846815346
 20
28.81598394034332
 30
0.0
 11
26.53397231225194
 21
31.19469778444182
 31
0.0
  0
LINE
  5
5F1
330
1F
100
AcDbEntity
  8
2
  6
CONTINUOUS
370
25
 62
7
100
AcDbLine
 10
23.91337530240656
 20
28.99836484330836
 30
0.0
 11
26.92781503746582
 21
32.01280457836764
 31
0.0
  0
LINE
  5
5F2
330
1F
100
AcDbEntity
  8
2
  6
CONTINUOUS
370
25
 62
7
100
AcDbLine
 10
23.67149213665967
 20
29.1807457462734
 30
0.0
 11
26.7859093492134
 21
32.29516295882715
 31
0.0
  0
LINE
  5
5F3
330
1F
100
AcDbEntity
  8
2
  6
CONTINUOUS
370
25
 62
7
100
AcDbLine
 10
23.58611611978575
 20
29.4468924692053
 30
0.0
 11
24.40634470547561
 21
28.62666388351543
 31
0.0
  0
LINE
  5
5F4
330
1F
100
AcDbEntity
  8
2
  6
CONTINUOUS
370
25
 62
7
100
AcDbLine
 10
23.8105775933443
 20
29.64669506435868
 30
0.0
 11
25.14591218163043
 21
28.31136047607255
 31
0.0
  0
LINE
  5
5F5
330
1F
100
AcDbEntity
  8
2
  6
CONTINUOUS
370
25
 62
7
100
AcDbLine
 10
24.03503906690285
 20
29.84649765951206
 30
0.0
 11
25.28378369722824
 21
28.59775302918666
 31
0.0
  0
LINE
  5
5F6
330
1F
100
AcDbEntity
  8
2
  6
CONTINUOUS
370
25
 62
7
100
AcDbLine
 10
24.2595005404614
 20
30.04630025466544
 30
0.0
 11
25.42165521282606
 21
28.88414558230077
 31
0.0
  0
LINE
  5
5F7
330
1F
100
AcDbEntity
  8
2
  6
CONTINUOUS
370
25
 62
7
100
AcDbLine
 10
24.48396201401995
 20
30.24610284981881
 30
0.0
 11
25.55952672842388
 21
29.17053813541488
 31
0.0
  0
LINE
  5
5F8
330
1F
100
AcDbEntity
  8
2
  6
CONTINUOUS
370
25
 62
7
100
AcDbLine
 10
24.7084234875785
 20
30.44590544497219
 30
0.0
 11
25.6973982440217
 21
29.456930688529
 31
0.0
  0
LINE
  5
5F9
330
1F
100
AcDbEntity
  8
2
  6
CONTINUOUS
370
25
 62
7
100
AcDbLine
 10
24.93288496113706
 20
30.64570804012557
 30
0.0
 11
25.83526975961951
 21
29.74332324164311
 31
0.0
  0
LINE
  5
5FA
330
1F
100
AcDbEntity
  8
2
  6
CONTINUOUS
370
25
 62
7
100
AcDbLine
 10
25.1573464346956
 20
30.84551063527895
 30
0.0
 11
25.97314127521733
 21
30.02971579475722
 31
0.0
  0
LINE
  5
5FB
330
1F
100
AcDbEntity
  8
2
  6
CONTINUOUS
370
25
 62
7
100
AcDbLine
 10
25.38180790825415
 20
31.04531323043233
 30
0.0
 11
26.11101279081515
 21
30.31610834787133
 31
0.0
  0
LINE
  5
5FC
330
1F
100
AcDbEntity
  8
2
  6
CONTINUOUS
370
25
 62
7
100
AcDbLine
 10
25.60626938181271
 20
31.24511582558571
 30
0.0
 11
26.24888430641296
 21
30.60250090098545
 31
0.0
  0
LINE
  5
5FD
330
1F
100
AcDbEntity
  8
2
  6
CONTINUOUS
370
25
 62
7
100
AcDbLine
 10
25.83073085537126
 20
31.44491842073909
 30
0.0
 11
26.38675582201079
 21
30.88889345409956
 31
0.0
  0
LINE
  5
5FE
330
1F
100
AcDbEntity
  8
2
  6
CONTINUOUS
370
25
 62
7
100
AcDbLine
 10
26.05519232892981
 20
31.64472101589246
 30
0.0
 11
26.5246273376086
 21
31.17528600721367
 31
0.0
  0
LINE
  5
5FF
330
1F
100
AcDbEntity
  8
2
  6
CONTINUOUS
370
25
 62
7
100
AcDbLine
 10
26.27965380248837
 20
31.84452361104584
 30
0.0
 11
26.66249885320642
 21
31.46167856032779
 31
0.0
  0
LINE
  5
600
330
1F
100
AcDbEntity
  8
2
  6
CONTINUOUS
370
25
 62
7
100
AcDbLine
 10
26.50411527604691
 20
32.04432620619922
 30
0.0
 11
26.80037036880424
 21
31.74807111344189
 31
0.0
  0
LINE
  5
601
330
1F
100
AcDbEntity
  8
2
  6
CONTINUOUS
370
25
 62
7
100
AcDbLine
 10
26.72857674960546
 20
32.2441288013526
 30
0.0
 11
26.93824188440205
 21
32.03446366655601
 31
0.0
  0
LINE
  5
602
330
1F
100
AcDbEntity
  8
2
  6
CONTINUOUS
370
25
 62
7
100
AcDbLine
 10
26.95303822316402
 20
32.44393139650598
 30
0.0
 11
27.07611339999988
 21
32.32085621967012
 31
0.0
  0
LINE
  5
603
330
1F
100
AcDbEntity
  8
2
  6
CONTINUOUS
370
25
 62
7
100
AcDbLine
 10
27.17749969672257
 20
32.64373399165936
 30
0.0
 11
27.21398491559769
 21
32.60724877278424
 31
0.0
  0
LINE
  5
604
330
1F
100
AcDbEntity
  8
2
  6
CONTINUOUS
370
25
 62
7
100
AcDbLine
 10
40.0
 20
38.0
 30
0.0
 11
45.09042874165996
 21
38.29586352610977
 31
0.0
  0
LINE
  5
605
330
1F
100
AcDbEntity
  8
2
  6
CONTINUOUS
370
25
 62
7
100
AcDbLine
 10
45.09042874165996
 20
38.29586352610977
 30
0.0
 11
44.81265096388219
 21
36.31524758500134
 31
0.0
  0
LINE
  5
606
330
1F
100
AcDbEntity
  8
2
  6
CONTINUOUS
370
25
 62
7
100
AcDbLine
 10
44.81265096388219
 20
36.31524758500134
 30
0.0
 11
40.0
 21
38.0
 31
0.0
  0
LINE
  5
607
330
1F
100
AcDbEntity
  8
2
  6
CONTINUOUS
370
25
 62
7
100
AcDbLine
 10
44.71818116226302
 20
36.34831838685603
 30
0.0
 11
44.83345619726979
 21
36.4635934218628
 31
0.0
  0
LINE
  5
608
330
1F
100
AcDbEntity
  8
2
  6
CONTINUOUS
370
25
 62
7
100
AcDbLine
 10
44.40392718107049
 20
36.45832847437543
 30
0.0
 11
44.90266484712014
 21
36.95706614042508
 31
0.0
  0
LINE
  5
609
330
1F
100
AcDbEntity
  8
2
  6
CONTINUOUS
370
25
 62
7
100
AcDbLine
 10
44.08967319987798
 20
36.56833856189485
 30
0.0
 11
44.97187349697048
 21
37.45053885898736
 31
0.0
  0
LINE
  5
60A
330
1F
100
AcDbEntity
  8
2
  6
CONTINUOUS
370
25
 62
7
100
AcDbLine
 10
43.77541921868546
 20
36.67834864941426
 30
0.0
 11
45.04108214682083
 21
37.94401157754963
 31
0.0
  0
LINE
  5
60B
330
1F
100
AcDbEntity
  8
2
  6
CONTINUOUS
370
25
 62
7
100
AcDbLine
 10
43.46116523749293
 20
36.78835873693367
 30
0.0
 11
44.96115652729373
 21
38.28835002673448
 31
0.0
  0
LINE
  5
60C
330
1F
100
AcDbEntity
  8
2
  6
CONTINUOUS
370
25
 62
7
100
AcDbLine
 10
43.14691125630041
 20
36.89836882445308
 30
0.0
 11
44.51071192755811
 21
38.26216949571079
 31
0.0
  0
LINE
  5
60D
330
1F
100
AcDbEntity
  8
2
  6
CONTINUOUS
370
25
 62
7
100
AcDbLine
 10
42.83265727510788
 20
37.00837891197249
 30
0.0
 11
44.0602673278225
 21
38.23598896468711
 31
0.0
  0
LINE
  5
60E
330
1F
100
AcDbEntity
  8
2
  6
CONTINUOUS
370
25
 62
7
100
AcDbLine
 10
42.51840329391536
 20
37.11838899949191
 30
0.0
 11
43.60982272808688
 21
38.20980843366343
 31
0.0
  0
LINE
  5
60F
330
1F
100
AcDbEntity
  8
2
  6
CONTINUOUS
370
25
 62
7
100
AcDbLine
 10
42.20414931272283
 20
37.2283990870113
 30
0.0
 11
43.15937812835126
 21
38.18362790263974
 31
0.0
  0
LINE
  5
610
330
1F
100
AcDbEntity
  8
2
  6
CONTINUOUS
370
25
 62
7
100
AcDbLine
 10
41.8898953315303
 20
37.33840917453072
 30
0.0
 11
42.70893352861564
 21
38.15744737161606
 31
0.0
  0
LINE
  5
611
330
1F
100
AcDbEntity
  8
2
  6
CONTINUOUS
370
25
 62
7
100
AcDbLine
 10
41.57564135033778
 20
37.44841926205013
 30
0.0
 11
42.25848892888002
 21
38.13126684059237
 31
0.0
  0
LINE
  5
612
330
1F
100
AcDbEntity
  8
2
  6
CONTINUOUS
370
25
 62
7
100
AcDbLine
 10
41.26138736914525
 20
37.55842934956954
 30
0.0
 11
41.8080443291444
 21
38.10508630956868
 31
0.0
  0
LINE
  5
613
330
1F
100
AcDbEntity
  8
2
  6
CONTINUOUS
370
25
 62
7
100
AcDbLine
 10
40.94713338795273
 20
37.66843943708895
 30
0.0
 11
41.35759972940878
 21
38.078905778545
 31
0.0
  0
LINE
  5
614
330
1F
100
AcDbEntity
  8
2
  6
CONTINUOUS
370
25
 62
7
100
AcDbLine
 10
40.6328794067602
 20
37.77844952460836
 30
0.0
 11
40.90715512967316
 21
38.05272524752132
 31
0.0
  0
LINE
  5
615
330
1F
100
AcDbEntity
  8
2
  6
CONTINUOUS
370
25
 62
7
100
AcDbLine
 10
40.31862542556768
 20
37.88845961212777
 30
0.0
 11
40.45671052993755
 21
38.02654471649763
 31
0.0
  0
LINE
  5
616
330
1F
100
AcDbEntity
  8
2
  6
CONTINUOUS
370
25
 62
7
100
AcDbLine
 10
40.00437144437515
 20
37.99846969964717
 30
0.0
 11
40.00626593020193
 21
38.00036418547395
 31
0.0
  0
LINE
  5
617
330
1F
100
AcDbEntity
  8
2
  6
CONTINUOUS
370
25
 62
7
100
AcDbLine
 10
40.06104085488516
 20
38.00354778810973
 30
0.0
 11
40.09937745425795
 21
37.96521118873693
 31
0.0
  0
LINE
  5
618
330
1F
100
AcDbEntity
  8
2
  6
CONTINUOUS
370
25
 62
7
100
AcDbLine
 10
40.46200053216592
 20
38.0268521795409
 30
0.0
 11
40.75215913733263
 21
37.73669357437419
 31
0.0
  0
LINE
  5
619
330
1F
100
AcDbEntity
  8
2
  6
CONTINUOUS
370
25
 62
7
100
AcDbLine
 10
40.86296020944668
 20
38.05015657097206
 30
0.0
 11
41.40494082040732
 21
37.50817596001143
 31
0.0
  0
LINE
  5
61A
330
1F
100
AcDbEntity
  8
2
  6
CONTINUOUS
370
25
 62
7
100
AcDbLine
 10
41.26391988672744
 20
38.07346096240324
 30
0.0
 11
42.057722503482
 21
37.27965834564868
 31
0.0
  0
LINE
  5
61B
330
1F
100
AcDbEntity
  8
2
  6
CONTINUOUS
370
25
 62
7
100
AcDbLine
 10
41.66487956400821
 20
38.09676535383441
 30
0.0
 11
42.71050418655669
 21
37.05114073128592
 31
0.0
  0
LINE
  5
61C
330
1F
100
AcDbEntity
  8
2
  6
CONTINUOUS
370
25
 62
7
100
AcDbLine
 10
42.06583924128898
 20
38.12006974526558
 30
0.0
 11
43.3632858696314
 21
36.82262311692316
 31
0.0
  0
LINE
  5
61D
330
1F
100
AcDbEntity
  8
2
  6
CONTINUOUS
370
25
 62
7
100
AcDbLine
 10
42.46679891856974
 20
38.14337413669674
 30
0.0
 11
44.01606755270606
 21
36.59410550256042
 31
0.0
  0
LINE
  5
61E
330
1F
100
AcDbEntity
  8
2
  6
CONTINUOUS
370
25
 62
7
100
AcDbLine
 10
42.86775859585051
 20
38.16667852812792
 30
0.0
 11
44.66884923578077
 21
36.36558788819765
 31
0.0
  0
LINE
  5
61F
330
1F
100
AcDbEntity
  8
2
  6
CONTINUOUS
370
25
 62
7
100
AcDbLine
 10
43.26871827313126
 20
38.18998291955909
 30
0.0
 11
44.85333900800453
 21
36.60536218468581
 31
0.0
  0
LINE
  5
620
330
1F
100
AcDbEntity
  8
2
  6
CONTINUOUS
370
25
 62
7
100
AcDbLine
 10
43.66967795041204
 20
38.21328731099026
 30
0.0
 11
44.90552261496917
 21
36.97744264643312
 31
0.0
  0
LINE
  5
621
330
1F
100
AcDbEntity
  8
2
  6
CONTINUOUS
370
25
 62
7
100
AcDbLine
 10
44.07063762769279
 20
38.23659170242143
 30
0.0
 11
44.9577062219338
 21
37.34952310818041
 31
0.0
  0
LINE
  5
622
330
1F
100
AcDbEntity
  8
2
  6
CONTINUOUS
370
25
 62
7
100
AcDbLine
 10
44.47159730497356
 20
38.2598960938526
 30
0.0
 11
45.00988982889844
 21
37.72160356992772
 31
0.0
  0
LINE
  5
623
330
1F
100
AcDbEntity
  8
2
  6
CONTINUOUS
370
25
 62
7
100
AcDbLine
 10
44.87255698225432
 20
38.28320048528376
 30
0.0
 11
45.06207343586308
 21
38.093684031675
 31
0.0
  0
TEXT
  5
624
330
1F
100
AcDbEntity
  8
2
  6
CONTINUOUS
370
25
 62
7
100
AcDbText
 10
28.765164977793
 20
36.45302686847931
 30
0.0
 40
3.499999999999999
  1
45°
 50
22.50000000000002
 72
     1
 11
32.53767306888075
 21
38.0156508839701
 31
0.0
100
AcDbText
  0
LINE
  5
625
330
1F
100
AcDbEntity
  8
INFTOTAL
  6
CONTINUOUS
370
18
 62
9
100
AcDbLine
 10
-35.200011
 20
-62.770368848
 30
0.0
 11
101.200010285
 21
-62.770368848
 31
0.0
  0
LINE
  5
626
330
1F
100
AcDbEntity
  8
INFTOTAL
  6
CONTINUOUS
370
18
 62
9
100
AcDbLine
 10
101.200010285
 20
-62.770368848
 30
0.0
 11
101.200010285
 21
62.770368848
 31
0.0
  0
LINE
  5
627
330
1F
100
AcDbEntity
  8
INFTOTAL
  6
CONTINUOUS
370
18
 62
9
100
AcDbLine
 10
101.200010285
 20
62.770368848
 30
0.0
 11
-35.200011
 21
62.770368848
 31
0.0
  0
LINE
  5
628
330
1F
100
AcDbEntity
  8
INFTOTAL
  6
CONTINUOUS
370
18
 62
9
100
AcDbLine
 10
-35.200011
 20
62.770368848
 30
0.0
 11
-35.200011
 21
-62.770368848
 31
0.0
  0
ARC
  5
629
330
1F
100
AcDbEntity
  8
SK6
  6
CONTINUOUS
370
25
 62
5
100
AcDbCircle
 10
63.46138129837651
 20
-52.11560360338785
 30
0.0
 40
2.76048912849221
100
AcDbArc
 50
338.9379403434233
 51
90.44457437511392
  0
LINE
  5
62A
330
1F
100
AcDbEntity
  8
SK6
  6
CONTINUOUS
370
25
 62
5
100
AcDbLine
 10
63.43996208695983
 20
-49.35519757421281
 30
0.0
 11
63.43996208695983
 21
-50.45825620613464
 31
0.0
  0
ARC
  5
62B
330
1F
100
AcDbEntity
  8
SK6
  6
CONTINUOUS
370
25
 62
5
100
AcDbCircle
 10
63.45050831936916
 20
-52.1355970956682
 30
0.0
 40
1.677374043771785
100
AcDbArc
 50
243.4214706017864
 51
90.36024081226107
  0
ARC
  5
62C
330
1F
100
AcDbEntity
  8
SK6
  6
CONTINUOUS
370
25
 62
5
100
AcDbCircle
 10
65.97275918684957
 20
-51.7041898421556
 30
0.0
 40
3.80021703002275
100
AcDbArc
 50
210.5483731288541
 51
236.9780169366802
  0
LINE
  5
62D
330
1F
100
AcDbEntity
  8
SK6
  6
CONTINUOUS
370
25
 62
5
100
AcDbLine
 10
63.90178997512486
 20
-54.89052566867535
 30
0.0
 11
68.04373025742672
 21
-54.89052566867535
 31
0.0
  0
ARC
  5
62E
330
1F
100
AcDbEntity
  8
SK6
  6
CONTINUOUS
370
25
 62
5
100
AcDbCircle
 10
65.97276112877258
 20
-51.70418994373459
 30
0.0
 40
3.800216899582478
100
AcDbArc
 50
303.0219828477958
 51
326.3732153033475
  0
LINE
  5
62F
330
1F
100
AcDbEntity
  8
SK6
  6
CONTINUOUS
370
25
 62
5
100
AcDbLine
 10
69.13705904135722
 20
-53.8086773407709
 30
0.0
 11
65.77976099575461
 21
-53.8086773407709
 31
0.0
  0
LINE
  5
630
330
1F
100
AcDbEntity
  8
SK6
  6
CONTINUOUS
370
25
 62
5
100
AcDbLine
 10
65.77976099575461
 20
-53.8086773407709
 30
0.0
 11
69.69962038771988
 21
-52.44727614641693
 31
0.0
  0
ARC
  5
631
330
1F
100
AcDbEntity
  8
SK6
  6
CONTINUOUS
370
25
 62
5
100
AcDbCircle
 10
65.9727618515721
 20
-51.7041904548594
 30
0.0
 40
3.800217216614737
100
AcDbArc
 50
348.7238644184696
 51
53.46910512608836
  0
LINE
  5
632
330
1F
100
AcDbEntity
  8
SK6
  6
CONTINUOUS
370
25
 62
5
100
AcDbLine
 10
68.23486453538546
 20
-48.65057909429967
 30
0.0
 11
66.03744976882736
 21
-53.10766758507057
 31
0.0
  0
ENDSEC
  0
SECTION
  2
OBJECTS
  0
DICTIONARY
  5
C
330
0
100
AcDbDictionary
  3
ACAD_GROUP
350
D
  3
ACAD_LAYOUT
350
1A
  3
ACAD_MATERIAL
350
3B
  3
ACAD_MLEADERSTYLE
350
655
  3
ACAD_MLINESTYLE
350
17
  3
ACAD_PLOTSETTINGS
350
19
  3
ACAD_SCALELIST
350
CA
  3
ACAD_VISUALSTYLE
350
2A
  3
ACDBHEADERROUNDTRIPXREC
350
633
  3
ACDBVARIABLEDICTIONARY
350
653
  0
DICTIONARY
  5
D
102
{ACAD_REACTORS
330
C
102
}
330
C
100
AcDbDictionary
  0
DICTIONARY
  5
1A
102
{ACAD_REACTORS
330
C
102
}
330
C
100
AcDbDictionary
  0
DICTIONARY
  5
3B
102
{ACAD_REACTORS
330
C
102
}
330
C
100
AcDbDictionary
  3
BYBLOCK
350
3D
  3
BYLAYER
350
3C
  3
GLOBAL
350
3E
  0
DICTIONARY
  5
655
102
{ACAD_REACTORS
330
C
102
}
330
C
100
AcDbDictionary
  0
DICTIONARY
  5
17
102
{ACAD_REACTORS
330
C
102
}
330
C
100
AcDbDictionary
  3
STANDARD
350
18
  0
DICTIONARY
  5
19
102
{ACAD_REACTORS
330
C
102
}
330
C
100
AcDbDictionary
  0
DICTIONARY
  5
CA
102
{ACAD_REACTORS
330
C
102
}
330
C
100
AcDbDictionary
  3
A0
350
CB
  3
A1
350
CC
  3
A2
350
CD
  3
A3
350
CE
  3
A4
350
CF
  3
A5
350
D0
  3
A6
350
D1
  3
A7
350
D2
  3
A8
350
D3
  3
A9
350
D4
  3
B0
350
D5
  3
B1
350
D6
  3
B2
350
D7
  3
B3
350
D8
  3
B4
350
D9
  3
B5
350
DA
  3
B6
350
DB
  3
B7
350
DC
  3
B8
350
DD
  3
B9
350
DE
  3
C0
350
DF
  3
C1
350
E0
  3
C2
350
E1
  3
C3
350
E2
  3
C4
350
E3
  3
C5
350
E4
  3
C6
350
E5
  3
C7
350
E6
  3
C8
350
E7
  3
C9
350
E8
  3
D0
350
E9
  3
D1
350
EA
  3
D2
350
EB
  0
DICTIONARY
  5
2A
102
{ACAD_REACTORS
330
C
102
}
330
C
100
AcDbDictionary
  3
2DWIREFRAME
350
2F
  3
3D_HIDDEN
350
31
  3
3DWIREFRAME
350
30
  3
BASIC
350
32
  3
BRIGHTEN
350
36
  3
COLORCHANGE
350
3A
  3
CONCEPTUAL
350
34
  3
DIM
350
35
  3
FACEPATTERN
350
39
  3
FLAT
350
2B
  3
FLATWITHEDGES
350
2C
  3
GOURAUD
350
2D
  3
GOURAUDWITHEDGES
350
2E
  3
LINEPATTERN
350
38
  3
REALISTIC
350
33
  3
THICKEN
350
37
  0
DICTIONARY
  5
633
102
{ACAD_REACTORS
330
C
102
}
330
C
100
AcDbDictionary
  3
CEPSNTYPE
350
63C
  3
DIMSTYLEDATA
350
652
  3
FINGERPRINTGUID
350
63D
  3
HYPERLINKBASE
350
636
  3
INSUNITS
350
63B
  3
LAYOUTDICT
350
638
  3
LWETCUNION
350
63A
  3
PLOTSETDICT
350
639
  3
PSVPSCALE
350
63F
  3
PUCSBASE
350
642
  3
PUCSORGBACK
350
648
  3
PUCSORGBOTTOM
350
644
  3
PUCSORGFRONT
350
647
  3
PUCSORGLEFT
350
645
  3
PUCSORGRIGHT
350
646
  3
PUCSORGTOP
350
643
  3
PUCSORTHOREF
350
640
  3
PUCSORTHOVIEW
350
641
  3
STYLESHEET
350
637
  3
TSTACKALIGN
350
634
  3
TSTACKSIZE
350
635
  3
UCSBASE
350
64B
  3
UCSORGBACK
350
651
  3
UCSORGBOTTOM
350
64D
  3
UCSORGFRONT
350
650
  3
UCSORGLEFT
350
64E
  3
UCSORGRIGHT
350
64F
  3
UCSORGTOP
350
64C
  3
UCSORTHOREF
350
649
  3
UCSORTHOVIEW
350
64A
  3
VERSIONGUID
350
63E
  0
DICTIONARY
  5
653
102
{ACAD_REACTORS
330
C
102
}
330
C
100
AcDbDictionary
  3
CANNOSCALE
350
658
  3
DIMASSOC
350
659
  3
HIDETEXT
350
65A
  3
PSOLHEIGHT
350
657
  3
PSOLWIDTH
350
656
  0
MATERIAL
  5
3D
102
{ACAD_REACTORS
330
3B
102
}
102
{ACAD_XDICTIONARY
360
65D
102
}
330
3B
100
AcDbMaterial
  1
ByBlock
  0
MATERIAL
  5
3C
102
{ACAD_REACTORS
330
3B
102
}
102
{ACAD_XDICTIONARY
360
65B
102
}
330
3B
100
AcDbMaterial
  1
ByLayer
  0
MATERIAL
  5
3E
102
{ACAD_REACTORS
330
3B
102
}
102
{ACAD_XDICTIONARY
360
65F
102
}
330
3B
100
AcDbMaterial
  1
Global
  0
MLINESTYLE
  5
18
102
{ACAD_REACTORS
330
17
102
}
330
17
100
AcDbMlineStyle
  2
Standard
 70
     0
  3

 62
   256
 51
90.0
 52
90.0
 71
     2
 49
0.5
 62
   256
  6
BYLAYER
 49
-0.5
 62
   256
  6
BYLAYER
  0
ACAD_PROXY_OBJECT
  5
CB
102
{ACAD_REACTORS
330
CA
102
}
330
CA
100
AcDbProxyObject
 90
      499
 91
      503
 93
       41
310
903313A31580
  0
ACAD_PROXY_OBJECT
  5
CC
102
{ACAD_REACTORS
330
CA
102
}
330
CA
100
AcDbProxyObject
 90
      499
 91
      503
 93
      105
310
903313A324000000000000004000
  0
ACAD_PROXY_OBJECT
  5
CD
102
{ACAD_REACTORS
330
CA
102
}
330
CA
100
AcDbProxyObject
 90
      499
 91
      503
 93
      105
310
903313A344000000000000104000
  0
ACAD_PROXY_OBJECT
  5
CE
102
{ACAD_REACTORS
330
CA
102
}
330
CA
100
AcDbProxyObject
 90
      499
 91
      503
 93
      105
310
903313A354000000000000144000
  0
ACAD_PROXY_OBJECT
  5
CF
102
{ACAD_REACTORS
330
CA
102
}
330
CA
100
AcDbProxyObject
 90
      499
 91
      503
 93
      105
310
903313A384000000000000204000
  0
ACAD_PROXY_OBJECT
  5
D0
102
{ACAD_REACTORS
330
CA
102
}
330
CA
100
AcDbProxyObject
 90
      499
 91
      503
 93
      113
310
904313A31304000000000000244000
  0
ACAD_PROXY_OBJECT
  5
D1
102
{ACAD_REACTORS
330
CA
102
}
330
CA
100
AcDbProxyObject
 90
      499
 91
      503
 93
      113
310
904313A31364000000000000304000
  0
ACAD_PROXY_OBJECT
  5
D2
102
{ACAD_REACTORS
330
CA
102
}
330
CA
100
AcDbProxyObject
 90
      499
 91
      503
 93
      113
310
904313A32304000000000000344000
  0
ACAD_PROXY_OBJECT
  5
D3
102
{ACAD_REACTORS
330
CA
102
}
330
CA
100
AcDbProxyObject
 90
      499
 91
      503
 93
      113
310
904313A333040000000000003E4000
  0
ACAD_PROXY_OBJECT
  5
D4
102
{ACAD_REACTORS
330
CA
102
}
330
CA
100
AcDbProxyObject
 90
      499
 91
      503
 93
      113
310
904313A34304000000000000444000
  0
ACAD_PROXY_OBJECT
  5
D5
102
{ACAD_REACTORS
330
CA
102
}
330
CA
100
AcDbProxyObject
 90
      499
 91
      503
 93
      113
310
904313A35304000000000000494000
  0
ACAD_PROXY_OBJECT
  5
D6
102
{ACAD_REACTORS
330
CA
102
}
330
CA
100
AcDbProxyObject
 90
      499
 91
      503
 93
      121
310
905313A3130304000000000000594000
  0
ACAD_PROXY_OBJECT
  5
D7
102
{ACAD_REACTORS
330
CA
102
}
330
CA
100
AcDbProxyObject
 90
      499
 91
      503
 93
      105
310
903323A310000000000000010100
  0
ACAD_PROXY_OBJECT
  5
D8
102
{ACAD_REACTORS
330
CA
102
}
330
CA
100
AcDbProxyObject
 90
      499
 91
      503
 93
      105
310
903343A310000000000000410100
  0
ACAD_PROXY_OBJECT
  5
D9
102
{ACAD_REACTORS
330
CA
102
}
330
CA
100
AcDbProxyObject
 90
      499
 91
      503
 93
      105
310
903383A310000000000000810100
  0
ACAD_PROXY_OBJECT
  5
DA
102
{ACAD_REACTORS
330
CA
102
}
330
CA
100
AcDbProxyObject
 90
      499
 91
      503
 93
      113
310
90431303A310000000000000910100
  0
ACAD_PROXY_OBJECT
  5
DB
102
{ACAD_REACTORS
330
CA
102
}
330
CA
100
AcDbProxyObject
 90
      499
 91
      503
 93
      121
310
9053130303A310000000000001650100
  0
ACAD_PROXY_OBJECT
  5
DC
102
{ACAD_REACTORS
330
CA
102
}
330
CA
100
AcDbProxyObject
 90
      499
 91
      503
 93
      257
310
90E312F31323822203D2031272D3022000000000000200FC000000000000284000
  0
ACAD_PROXY_OBJECT
  5
DD
102
{ACAD_REACTORS
330
CA
102
}
330
CA
100
AcDbProxyObject
 90
      499
 91
      503
 93
      249
310
90D312F363422203D2031272D3022000000000000240FC000000000000284000
  0
ACAD_PROXY_OBJECT
  5
DE
102
{ACAD_REACTORS
330
CA
102
}
330
CA
100
AcDbProxyObject
 90
      499
 91
      503
 93
      249
310
90D312F333222203D2031272D3022000000000000280FC000000000000284000
  0
ACAD_PROXY_OBJECT
  5
DF
102
{ACAD_REACTORS
330
CA
102
}
330
CA
100
AcDbProxyObject
 90
      499
 91
      503
 93
      249
310
90D312F313622203D2031272D30220000000000002C0FC000000000000284000
  0
ACAD_PROXY_OBJECT
  5
E0
102
{ACAD_REACTORS
330
CA
102
}
330
CA
100
AcDbProxyObject
 90
      499
 91
      503
 93
      249
310
90D332F333222203D2031272D30220000000000002E0FC000000000000284000
  0
ACAD_PROXY_OBJECT
  5
E1
102
{ACAD_REACTORS
330
CA
102
}
330
CA
100
AcDbProxyObject
 90
      499
 91
      503
 93
      241
310
90C312F3822203D2031272D3022000000000000300FC000000000000284000
  0
ACAD_PROXY_OBJECT
  5
E2
102
{ACAD_REACTORS
330
CA
102
}
330
CA
100
AcDbProxyObject
 90
      499
 91
      503
 93
      249
310
90D332F313622203D2031272D3022000000000000320FC000000000000284000
  0
ACAD_PROXY_OBJECT
  5
E3
102
{ACAD_REACTORS
330
CA
102
}
330
CA
100
AcDbProxyObject
 90
      499
 91
      503
 93
      241
310
90C312F3422203D2031272D3022000000000000340FC000000000000284000
  0
ACAD_PROXY_OBJECT
  5
E4
102
{ACAD_REACTORS
330
CA
102
}
330
CA
100
AcDbProxyObject
 90
      499
 91
      503
 93
      241
310
90C332F3822203D2031272D3022000000000000360FC000000000000284000
  0
ACAD_PROXY_OBJECT
  5
E5
102
{ACAD_REACTORS
330
CA
102
}
330
CA
100
AcDbProxyObject
 90
      499
 91
      503
 93
      241
310
90C312F3222203D2031272D3022000000000000380FC000000000000284000
  0
ACAD_PROXY_OBJECT
  5
E6
102
{ACAD_REACTORS
330
CA
102
}
330
CA
100
AcDbProxyObject
 90
      499
 91
      503
 93
      241
310
90C332F3422203D2031272D30220000000000003A0FC000000000000284000
  0
ACAD_PROXY_OBJECT
  5
E7
102
{ACAD_REACTORS
330
CA
102
}
330
CA
100
AcDbProxyObject
 90
      499
 91
      503
 93
      161
310
90A3122203D2031272D30224000000000000284000
  0
ACAD_PROXY_OBJECT
  5
E8
102
{ACAD_REACTORS
330
CA
102
}
330
CA
100
AcDbProxyObject
 90
      499
 91
      503
 93
      257
310
90E312D312F3222203D2031272D30220000000000003E0FC000000000000284000
  0
ACAD_PROXY_OBJECT
  5
E9
102
{ACAD_REACTORS
330
CA
102
}
330
CA
100
AcDbProxyObject
 90
      499
 91
      503
 93
      225
310
90A3322203D2031272D302200000000000002100000000000000284000
  0
ACAD_PROXY_OBJECT
  5
EA
102
{ACAD_REACTORS
330
CA
102
}
330
CA
100
AcDbProxyObject
 90
      499
 91
      503
 93
      225
310
90A3622203D2031272D302200000000000006100000000000000284000
  0
ACAD_PROXY_OBJECT
  5
EB
102
{ACAD_REACTORS
330
CA
102
}
330
CA
100
AcDbProxyObject
 90
      499
 91
      503
 93
      249
310
90D31272D3022203D2031272D30220000000000000A100000000000000284000
  0
ACAD_PROXY_OBJECT
  5
2F
102
{ACAD_REACTORS
330
2A
102
}
330
2A
100
AcDbProxyObject
 90
      499
 91
      501
 93
      436
310
42CC9915DA5C99599C985B595049028333333333333E3BF0000000000000FB0107901411070040501600405405064090741402480A0340
1001
ACAD
1000
AcDbSavedByObjectVersion
1070
     0
  0
ACAD_PROXY_OBJECT
  5
31
102
{ACAD_REACTORS
330
2A
102
}
330
2A
100
AcDbProxyObject
 90
      499
 91
      501
 93
      500
310
424CD108121A5919195B90640502408333333333333E3BF0000000000000FB01079024090700405020000000000001110200405405064090740C02480A0340
1001
ACAD
1000
AcDbSavedByObjectVersion
1070
     0
  0
ACAD_PROXY_OBJECT
  5
30
102
{ACAD_REACTORS
330
2A
102
}
330
2A
100
AcDbProxyObject
 90
      499
 91
      501
 93
      436
310
42CCD915DA5C99599C985B595059028333333333333E3BF0000000000000FB0107901411070040501600405405064090741402480A0340
1001
ACAD
1000
AcDbSavedByObjectVersion
1070
     0
  0
ACAD_PROXY_OBJECT
  5
32
102
{ACAD_REACTORS
330
2A
102
}
330
2A
100
AcDbProxyObject
 90
      499
 91
      501
 93
      388
310
4150985CDA58D07406404333333333333E3BF0000000000000FB0107A41107004050150841D405064090741402480A0350
1001
ACAD
1000
AcDbSavedByObjectVersion
1070
     0
  0
ACAD_PROXY_OBJECT
  5
36
102
{ACAD_REACTORS
330
2A
102
}
330
2A
100
AcDbProxyObject
 90
      499
 91
      501
 93
      428
310
42109C9A59DA1D195B90C409028333333333333E3BF0000000000000FB010790141107004050150841D405064090741402480A029950
1001
ACAD
1000
AcDbSavedByObjectVersion
1070
     0
  0
ACAD_PROXY_OBJECT
  5
3A
102
{ACAD_REACTORS
330
2A
102
}
330
2A
100
AcDbProxyObject
 90
      499
 91
      501
 93
      452
310
42D0DBDB1BDC90DA185B99D95104090240C333333333333E3BF0000000000000FB0108901411070040501508421405064090741402480A0350
1001
ACAD
1000
AcDbSavedByObjectVersion
1070
     0
  0
ACAD_PROXY_OBJECT
  5
34
102
{ACAD_REACTORS
330
2A
102
}
330
2A
100
AcDbProxyObject
 90
      499
 91
      501
 93
      500
310
4290DBDB98D95C1D1D585B10940D028333333333333E3BF0000000000000FB0107902409070040501000000000000111010841D405064090740C02480A0340
1001
ACAD
1000
AcDbSavedByObjectVersion
1070
     0
  0
ACAD_PROXY_OBJECT
  5
35
102
{ACAD_REACTORS
330
2A
102
}
330
2A
100
AcDbProxyObject
 90
      499
 91
      501
 93
      412
310
40D11A5B50B409028333333333333E3BF0000000000000FB010790141107004050150841D405064090741402480A02677FFFFFD0
1001
ACAD
1000
AcDbSavedByObjectVersion
1070
     0
  0
ACAD_PROXY_OBJECT
  5
39
102
{ACAD_REACTORS
330
2A
102
}
330
2A
100
AcDbProxyObject
 90
      499
 91
      501
 93
      444
310
42D19858D95C185D1D195C9B90F409028333333333333E3BF0000000000000FB010790141107004050150841D405064090741402480A0350
1001
ACAD
1000
AcDbSavedByObjectVersion
1070
     0
  0
ACAD_PROXY_OBJECT
  5
2B
102
{ACAD_REACTORS
330
2A
102
}
330
2A
100
AcDbProxyObject
 90
      499
 91
      501
 93
      388
310
41119B185D240901404333333333333E3BF0000000000000F9010740A41107004050150841D405064090741402480A1B50
1001
ACAD
1000
AcDbSavedByObjectVersion
1070
     0
  0
ACAD_PROXY_OBJECT
  5
2C
102
{ACAD_REACTORS
330
2A
102
}
330
2A
100
AcDbProxyObject
 90
      499
 91
      501
 93
      476
310
43519B185D15DA5D1A115919D95CD0140901404333333333333E3BF0000000000000F9010740901411070040501600405405064090741402480A1B50
1001
ACAD
1000
AcDbSavedByObjectVersion
1070
     0
  0
ACAD_PROXY_OBJECT
  5
2D
102
{ACAD_REACTORS
330
2A
102
}
330
2A
100
AcDbProxyObject
 90
      499
 91
      501
 93
      412
310
41D1DBDD5C985D5910240902404333333333333E3BF0000000000000F9010740A411070040501641D405064090741402480A1B50
1001
ACAD
1000
AcDbSavedByObjectVersion
1070
     0
  0
ACAD_PROXY_OBJECT
  5
2E
102
{ACAD_REACTORS
330
2A
102
}
330
2A
100
AcDbProxyObject
 90
      499
 91
      501
 93
      500
310
4411DBDD5C985D5915DA5D1A115919D95CD0340902404333333333333E3BF0000000000000F9010740901411070040501600405405064090741402480A1B50
1001
ACAD
1000
AcDbSavedByObjectVersion
1070
     0
  0
ACAD_PROXY_OBJECT
  5
38
102
{ACAD_REACTORS
330
2A
102
}
330
2A
100
AcDbProxyObject
 90
      499
 91
      501
 93
      444
310
42D31A5B995C185D1D195C9B90E409028333333333333E3BF0000000000000FB010790141107004050750841D405064090741402483A0350
1001
ACAD
1000
AcDbSavedByObjectVersion
1070
     0
  0
ACAD_PROXY_OBJECT
  5
33
102
{ACAD_REACTORS
330
2A
102
}
330
2A
100
AcDbProxyObject
 90
      499
 91
      501
 93
      420
310
425499585B1A5CDD1A58D08409028333333333333E3BF0000000000000FB01079019070040501508421405064090741402480A1B40
1001
ACAD
1000
AcDbSavedByObjectVersion
1070
     0
  0
ACAD_PROXY_OBJECT
  5
37
102
{ACAD_REACTORS
330
2A
102
}
330
2A
100
AcDbProxyObject
 90
      499
 91
      501
 93
      412
310
41D51A1A58DAD95B90D409028333333333333E3BF0000000000000FB010790141107004050150C41D405064090741402480A0350
1001
ACAD
1000
AcDbSavedByObjectVersion
1070
     0
  0
XRECORD
  5
63C
102
{ACAD_REACTORS
330
633
102
}
330
633
100
AcDbXrecord
 90
        0
  0
XRECORD
  5
652
102
{ACAD_REACTORS
330
633
102
}
330
633
100
AcDbXrecord
1000
DSTYLE
1002
{
1070
   340
340
11
1002
}
  0
XRECORD
  5
63D
102
{ACAD_REACTORS
330
633
102
}
330
633
100
AcDbXrecord
  1
{35551CAF-79DC-40EA-B4DA-FCE8D5870990}
  0
XRECORD
  5
636
102
{ACAD_REACTORS
330
633
102
}
330
633
100
AcDbXrecord
  1

  0
XRECORD
  5
63B
102
{ACAD_REACTORS
330
633
102
}
330
633
100
AcDbXrecord
 90
        4
  0
XRECORD
  5
638
102
{ACAD_REACTORS
330
633
102
}
330
633
100
AcDbXrecord
340
1A
  0
XRECORD
  5
63A
102
{ACAD_REACTORS
330
633
102
}
330
633
100
AcDbXrecord
 90
    10781
  0
XRECORD
  5
639
102
{ACAD_REACTORS
330
633
102
}
330
633
100
AcDbXrecord
340
19
  0
XRECORD
  5
63F
102
{ACAD_REACTORS
330
633
102
}
330
633
100
AcDbXrecord
 40
0.0
  0
XRECORD
  5
642
102
{ACAD_REACTORS
330
633
102
}
330
633
100
AcDbXrecord
340
0
  0
XRECORD
  5
648
102
{ACAD_REACTORS
330
633
102
}
330
633
100
AcDbXrecord
 10
0.0
 20
0.0
 30
0.0
  0
XRECORD
  5
644
102
{ACAD_REACTORS
330
633
102
}
330
633
100
AcDbXrecord
 10
0.0
 20
0.0
 30
0.0
  0
XRECORD
  5
647
102
{ACAD_REACTORS
330
633
102
}
330
633
100
AcDbXrecord
 10
0.0
 20
0.0
 30
0.0
  0
XRECORD
  5
645
102
{ACAD_REACTORS
330
633
102
}
330
633
100
AcDbXrecord
 10
0.0
 20
0.0
 30
0.0
  0
XRECORD
  5
646
102
{ACAD_REACTORS
330
633
102
}
330
633
100
AcDbXrecord
 10
0.0
 20
0.0
 30
0.0
  0
XRECORD
  5
643
102
{ACAD_REACTORS
330
633
102
}
330
633
100
AcDbXrecord
 10
0.0
 20
0.0
 30
0.0
  0
XRECORD
  5
640
102
{ACAD_REACTORS
330
633
102
}
330
633
100
AcDbXrecord
340
0
  0
XRECORD
  5
641
102
{ACAD_REACTORS
330
633
102
}
330
633
100
AcDbXrecord
 70
     0
  0
XRECORD
  5
637
102
{ACAD_REACTORS
330
633
102
}
330
633
100
AcDbXrecord
  1

  0
XRECORD
  5
634
102
{ACAD_REACTORS
330
633
102
}
330
633
100
AcDbXrecord
 90
        1
  0
XRECORD
  5
635
102
{ACAD_REACTORS
330
633
102
}
330
633
100
AcDbXrecord
 90
       70
  0
XRECORD
  5
64B
102
{ACAD_REACTORS
330
633
102
}
330
633
100
AcDbXrecord
340
0
  0
XRECORD
  5
651
102
{ACAD_REACTORS
330
633
102
}
330
633
100
AcDbXrecord
 10
0.0
 20
0.0
 30
0.0
  0
XRECORD
  5
64D
102
{ACAD_REACTORS
330
633
102
}
330
633
100
AcDbXrecord
 10
0.0
 20
0.0
 30
0.0
  0
XRECORD
  5
650
102
{ACAD_REACTORS
330
633
102
}
330
633
100
AcDbXrecord
 10
0.0
 20
0.0
 30
0.0
  0
XRECORD
  5
64E
102
{ACAD_REACTORS
330
633
102
}
330
633
100
AcDbXrecord
 10
0.0
 20
0.0
 30
0.0
  0
XRECORD
  5
64F
102
{ACAD_REACTORS
330
633
102
}
330
633
100
AcDbXrecord
 10
0.0
 20
0.0
 30
0.0
  0
XRECORD
  5
64C
102
{ACAD_REACTORS
330
633
102
}
330
633
100
AcDbXrecord
 10
0.0
 20
0.0
 30
0.0
  0
XRECORD
  5
649
102
{ACAD_REACTORS
330
633
102
}
330
633
100
AcDbXrecord
340
0
  0
XRECORD
  5
64A
102
{ACAD_REACTORS
330
633
102
}
330
633
100
AcDbXrecord
 70
     0
  0
XRECORD
  5
63E
102
{ACAD_REACTORS
330
633
102
}
330
633
100
AcDbXrecord
  1
{FAEB1C32-E019-11D5-929B-00C0DF256EC4}
  0
DICTIONARYVAR
  5
658
102
{ACAD_REACTORS
330
653
102
}
330
653
100
DictionaryVariables
280
     0
  1
1:1
  0
DICTIONARYVAR
  5
659
102
{ACAD_REACTORS
330
653
102
}
330
653
100
DictionaryVariables
280
     0
  1
2
  0
DICTIONARYVAR
  5
65A
102
{ACAD_REACTORS
330
653
102
}
330
653
100
DictionaryVariables
280
     0
  1
1
  0
DICTIONARYVAR
  5
657
102
{ACAD_REACTORS
330
653
102
}
330
653
100
DictionaryVariables
280
     0
  1
80.000000
  0
DICTIONARYVAR
  5
656
102
{ACAD_REACTORS
330
653
102
}
330
653
100
DictionaryVariables
280
     0
  1
5.000000
  0
DICTIONARY
  5
65D
330
3D
100
AcDbDictionary
280
     1
  3
ACAD_XREC_ROUNDTRIP
360
65E
  0
DICTIONARY
  5
65B
330
3C
100
AcDbDictionary
280
     1
  3
ACAD_XREC_ROUNDTRIP
360
65C
  0
DICTIONARY
  5
65F
330
3E
100
AcDbDictionary
280
     1
  3
ACAD_XREC_ROUNDTRIP
360
660
  0
XRECORD
  5
65E
102
{ACAD_REACTORS
330
65D
102
}
330
65D
100
AcDbXrecord
102
MATERIAL
148
0.0
149
0.0
149
0.0
 93
        0
 94
      127
282
     0
 72
     1
 77
     1
171
     1
175
     1
179
     1
273
     0
  0
XRECORD
  5
65C
102
{ACAD_REACTORS
330
65B
102
}
330
65B
100
AcDbXrecord
102
MATERIAL
148
0.0
149
0.0
149
0.0
 93
        0
 94
      127
282
     0
 72
     1
 77
     1
171
     1
175
     1
179
     1
273
     0
  0
XRECORD
  5
660
102
{ACAD_REACTORS
330
65F
102
}
330
65F
100
AcDbXrecord
102
MATERIAL
148
0.0
149
0.0
149
0.0
 93
        0
 94
      127
282
     0
 72
     1
 77
     1
171
     1
175
     1
179
     1
273
     0
  0
ENDSEC
  0
EOF
